The Band Apart - Higher tab

-------------------------------------------------------------------------------
			  Higher - The Band Apart
-------------------------------------------------------------------------------
Tabbed by: GrooveBear
Email: GrooveBear@gmx.net

Tuning: Standard


Drum-Intro 4 Bars

Part A
    E   E  E  E  E  Q    E        E  E  E  E  E  Q.     
e||-------------------------|  |------------------------|
B||-----------7--7-------6--|  |--6--7--7---------------|
G||--P- 6--6--6--6--P----6--|  |--6--6--6--6--6--P------|
D||-----4--4--4--4----------|  |-----------6--6---------|
A||----------------------4--|  |--4--6--6---------------|
E||-----6--6----------------|  |-----------4--4---------|

    E  E  E  E  E   Q    E        E  E  E  H        E  
  |-------------------------|  |-----------------------| 
  |-----------7--7-------6--|  |--6--7--7--------------|
  |--P--6--6--6--6--P----6--|  |--6--6--6--P--------P--|
  |-----4--4--4--4----------|  |-----------------------|
  |----------------------4--|  |--4--6--6--------------|
  |-----6--6----------------|  |-----------------------|



Part B

     S  S  S S S  S  S S  E  S S   E  S S   
  |--------------------------------------|
  |--11---11---11----9----9--x-x--9--x-x-|
  |--11-P-11-P-11-P-10-P-10--x-x-10--x-x-|
  |---9----9----9----8----8--x-x--8--x-x-|
  |--------------------------------------|
  |--------------------------------------|

      E.  S E  E  Q   E  S S   
  |--------------------------|
  |---9---7----7--L---7--x-x-|
  |--10---8-P--8--L---8--x-x-|
  |---8---6----6--L---6--x-x-|
  |--------------------------|
  |--------------------------|

      S S  S S  S S  S S  E  S S  S  S  S S
  |-----------------------------------------|
  |--11---11---11----9----9--x-x-14-14-14-x-|
  |--11-P-11-P-11-P-10-P-10--x-x-13-13-13-x-|
  |---9----9----9----8----8--x-x-11-11-11-x-|
  |-----------------------------------------|
  |-----------------------------------------|

    E.  S E  E  Q   E  S S   
  |--------------------------|
  |---9---7----7--L---7--x-x-|
  |--10---8-P--8--L---8--x-x-|
  |---8---6----6--L---6--x-x-|
  |--------------------------|
  |--------------------------|


Part C
  
     E  E  E  E   E   E   E   E   
  |------------------------------|
  |--7--7--7--7---9---9---9---9--|
  |--8--8--8--8--10--10--10--10--|
  |--6--6--6--6---8---8---8---8--|
  |------------------------------|
  |------------------------------|



Part D

     E  E  E  E  E  E  E  E        E  E  E  E  E  E  E  E
  |--------------------------|  |--------------------------|
  |-----------7--7--7--7--6--|  |--6--6--6--7--7--7--7--7--|
  |--6--6--6--6--6--6--6--6--|  |--6--6--6--6--6--6--6--6--|
  |--4--4--4--4--4--4--4-----|  |--------------------------|
  |-----------------------4--|  |--4--4--4--6--6--6--6--6--|
  |--6--6--6-----------------|  |--------------------------|



Part E
 
     W                 
  |--------------------|
  |--11----------------|
  |--11----------------|
  |--11----------------|
  |--------------------|
  |--------------------|


     H        E   E  E   E   
  |--------------------------|
  |--12--------L--12-----12--|
  |--13--------L--11--P--11--|
  |--12--------L--11-----11--|
  |--------------------------|
  |--------------------------|


 Part F

     E  E  E  E  E  Q    E        E  E  E  E  E  Q  E   
  |-------------------------|  |-------------------------|
  |-----------7--7-------6--|  |--6--7--7----------------|
  |--P- 6--6--6--6--P----6--|  |--6--6--6--6--6--P--6----|
  |-----4--4--4--4----------|  |-----------6--6-----6----|
  |----------------------4--|  |--4--6--6----------------|
  |-----6--6----------------|  |-----------4--4-----4----|

     E  E  E  E  E   Q    E        E  E  E Q   E  E  E
  |-------------------------|  |-------------------------| 
  |-----------7--7-------6--|  |--6--7--7------7-----7---|
  |--P--6--6--6--6---P---6--|  |--6--6--6--P---6--P--6---|
  |-----4--4--4--4----------|  |-------------------------|
  |----------------------4--|  |--4--6--6------6-----6---|
  |-----6--6----------------|  |-------------------------|


Part G

      W                    W                 
  |--------------------|--------------------|
  |--11----------------|--12----------------|
  |--11----------------|--13----------------|
  |--11----------------|--12----------------|
  |--------------------|--------------------|
  |--------------------|--------------------|


     E   E   E   E   E   E   E   E   
  |----------------------------------|
  |--11--11--11--11--11--11--11--11--|
  |--11--11--11--11--11--11--11--11--|
  |--11--11--11--11--11--11--11--11--|
  |----------------------------------|
  |----------------------------------|


     E   E   E   E   E   E   E   E   
  |----------------------------------|
  |--12--12--12--12--12--12--12--12--|
  |--13--13--13--13--13--13--13--13--|
  |--12--12--12--12--12--12--12--12--|
  |----------------------------------|
  |----------------------------------|


                      Song structure
 
Drum-Intro 4 Bars

6 X Part A
2 X Part B
2 X Part A
2 X Part B The second Time playing don't Play the last bar play Part C ones
8 X Part D
1 X Part E
2 X Part A
2 X Part F
2 X Part B
1 X Part G
Part D for the rest of the Song

So that is that
You need to listen to the song or better yet get the GP file ^^
Smooth Playing

official website
http://www.asiangothic.org/band
Tap to rate this tab
 
# A B C D E F G H I J K L M N O P Q R S T U V W X Y Z