The Band Apart - Higher tab

-------------------------------------------------------------------------------
			     Higher - The Band Apart
-------------------------------------------------------------------------------
Tabbed by: GrooveBear
Email: GrooveBear@gmx.net

Tuning: Standard

 Part A

     E  E  E  E  E   Q   E        E  E  E  E  E  Q.   
  |-------------------------|  |------------------------|
  |-----------7--7-------6--|  |--6--7--7---------------|
  |--P--6--6--6--6---P---6--|  |--6--6--6--6--6--P------|
  |-----4--4--4--4----------|  |-----------6--6---------|
  |----------------------4--|  |--4--6--6---------------|
  |-----6--6----------------|  |-----------4--4---------|

     E  E  E  E  E  Q    E        E  E  E   H     E 
  |-------------------------|  |-----------------------|
  |-----------7--7-------6--|  |--6--7--7--------------|
  |--P--6--6--6--6--P----6--|  |--6--6--6---P-----P----|
  |-----4--4--4--4----------|  |-----------------------|
  |----------------------4--|  |--4--6--6--------------|
  |-----6--6----------------|  |-----------------------|


 Part B

     H         H              W                 
  |---------------------|  |--------------------|
  |--9------------------|  |--------------------|
  |-----------11--------|  |--------------------|
  |---------------------|  |--11----------------|
  |---------------------|  |--------------------|
  |---------------------|  |--------------------|

     H         H              Q.       Q     E   Q   
  |---------------------|  |---------------------------|
  |---------------------|  |----------/12----11--------|
  |---------------------|  |----------/13----11--13----|
  |--L--------13--------|  |--11-----------------13----|
  |---------------------|  |---------------------------|
  |---------------------|  |---------------------------|

    H         H              W                 
  |---------------------|  |--------------------|
  |--9------------------|  |--------------------|
  |-----------11--------|  |--------------------|
  |---------------------|  |--11----------------|
  |---------------------|  |--------------------|
  |---------------------|  |--------------------|

   H         H              Q.       Q     E   Q   
  |---------------------|  |---------------------------|
  |---------------------|  |----------/11----12--14----|
  |---------------------|  |----------/11----13--15----|
  |--L--------13--------|  |--11-----------------------|
  |---------------------|  |---------------------------|
  |---------------------|  |---------------------------|


 Part C

     S  S S S E  S  S S S E  S  S S S  
  |---------2-----------4-----------6-|   
  |--2h-4-P-2-P--2h-4-P-4-P--2h-4-P-6-|
  |--3h-4--------3h-4--------3h-4-----|
  |-----------------------------------|
  |-----------------------------------|
  |-----------------------------------|

     S S E  S S E   S  S  S  S  S  S  S  S  
  |----4----2-2----14-14-14-14-14-14-14-14-|
  |--P-4-P--2-2-P--14-14-14-14-14-14-14-14-|
  |----------------------------------------|
  |----------------------------------------|
  |----------------------------------------|
  |----------------------------------------|

   S  S S S E  S  S S S E  S  S S S  
  |---------2-----------4-----------6-|   
  |--2h-4-P-2-P--2h-4-P-4-P--2h-4-P-6-|
  |--3h-4--------3h-4--------3h-4-----|
  |-----------------------------------|
  |-----------------------------------|
  |-----------------------------------|

     S S E  S S E   S  S  E  S  S  E    
  |----4----2-2----14-14----14-14-----|
  |--P-4-P--2-2-P--14-14--P-14-14--P--|
  |-----------------------------------|
  |-----------------------------------|
  |-----------------------------------|
  |-----------------------------------|


 Part D

     S S E  S S E   E   E   E   E   
  |----4----2-2--------------------|
  |--P-4-P--2-2-P---9---9---9---9--|
  |----------------10--10--10--10--|
  |--------------------------------|
  |--------------------------------|
  |--------------------------------|

 
 Part E

     E  E  E  E  E  E  E  E         E  E   E  Q    E  Q  
  |-----------------9--6-----|   |-----------7-------------|
  |--------6--7--9--------7--|   |--------6-------9--7~----|
  |-----6--------------------|   |-----6-------------------|
  |--4-----------------------|   |-------------------------|
  |--------------------------|   |--6----------------------|
  |--------------------------|   |-------------------------|

  E  E  E  E  E  E  E  E            E   E  E  E  E  E  E   E   
  |-----------------9--6-----|   |---------7--6---------------|
  |--------6--7--9--------7--|   |---------------6------------|
  |-----6--------------------|   |--4s--6-----------6---------|
  |--4-----------------------|   |---------------------8s--6--|
  |--------------------------|   |----------------------------|
  |--------------------------|   |----------------------------|


 Part F
 
    W
  |--------------------|
  |--11----------------|
  |--11----------------|
  |--11----------------|
  |--------------------|
  |--------------------|


      H        E   E  E   E                   
  |---------------14-----14--|
  |--12--------L--12--P--12--|
  |--13--------L--13-----13--|
  |--12--------L-------------|
  |--------------------------|
  |--------------------------|


Part G

     H        E  E  E  E   
  |-----------------------|
  |--------------7-----7--|
  |--P-----------8--P--8--|
  |-----------L-----------|
  |-----------------------|
  |-----------------------|


Part H
 
     E  E  E  E  E  Q    E        E   E   E   E   E  Q    E   
  |-------------------------|  |------------------------------|
  |-----------7--7-------7--|  |--7---9---9--11--11-------11--|
  |--P--6--6--8--8--P----8--|  |--8--10--10--11--11--P----11--|
  |-----8--8----------------|  |------------------------------|
  |-------------------------|  |------------------------------|
  |-------------------------|  |------------------------------|


     E  E  E  E  E  Q    E        E  E  E  Q    E  E  E   
  |-------------------------|  |-------------------------|
  |-----------7--7-------7--|  |--7--6--7-------7-----7--|
  |--P--6--6--8--8---P---8--|  |--8--6--8--P----8--P--8--|
  |-----8--8----------------|  |-------------------------|
  |-------------------------|  |-------------------------|
  |-------------------------|  |-------------------------|


Part I
   
     W                        W                 
  |--------------------|  |--------------------|
  |--11----------------|  |--12----------------|
  |--11----------------|  |--13----------------|
  |--11----------------|  |--12----------------|
  |--------------------|  |--------------------|
  |--------------------|  |--------------------|

      E   E   E   E   E   E   E   E   
  |--16--16--16--16--16--16--16--16--|
  |--14--14--14--14--14--14--14--14--|
  |--15--15--15--15--15--15--15--15--|
  |----------------------------------|
  |----------------------------------|
  |----------------------------------|

      E   E   E   E   E   E   E   E           
  |--14--14--14--14--14--14--14--14--|
  |--12--12--12--12--12--12--12--12--|
  |--13--13--13--13--13--13--13--13--|
  |----------------------------------|
  |----------------------------------|
  |----------------------------------|


 Part J

     E   E   E   E  E   E   E   E   
  |--9--------------9--------------|
  |--9--11---9------9--11---9------|
  |-----11--10--11-----11--10--11--|
  |-------------11-------------11--|
  |--------------------------------|
  |--------------------------------|



                      song Structure


 4 bar Drum-Intro
 3 X Part A
 1 X Part B
 2 X Part C
 1 X Part B
 2 X Part C second time playing don't play the last bar play Part D
 4 X Part E
 1 x Part F after that Wait 7 bars and than play Part G
 2 X Part H
 2 X Part C
For the rest of the Song play Part I
( Optional ) Start Playing Part J a couple of Times, at the end of the Song. It's 
the Intro of amplified my sign.


I'M not THAT sure about the order of the different Parts just listen to the Song 
and You figure it out. 
Have Fun and Smooth Playing


http://www.asiangothic.org/band/




Duration Legend
_______________
W - whole
H - half
Q - quarter
E - 8th
S - 16th
. - note dotted
P - Pause 


Tablature Legend
________________

L - tied note
x - dead note
h - hammer on
p - pull off
S - shift slide
s - legato slide
Tap to rate this tab
 
# A B C D E F G H I J K L M N O P Q R S T U V W X Y Z