Song name
# A B C D E F G H I J K L M N O P Q R S T U V W X Y Z

The Beautiful Girls - Shot Down tab

Help us improve GuitareTab! Take a short survey!
The Beautiful Girls - Shot Down
Here is the tab for shot down, a nice song from the australian band The Beautiful Girls. 
comments e-mail me at domidiego@gmail.com

Intro
E--------------------|
B--------4-7-4-------|
G----3-3-5-6-5-------|
D----5-5-------------|
A--------------------|
E--------------------|

Riff

E--------------------|
B--------------------|
G----5-3-------------|
D--------3-5-3-5-----|
A--------------------|
E--------------------|

Verse/Chorus
Gm - Cm7 - Dm7
Related for Shot Down tab