Song name
# A B C D E F G H I J K L M N O P Q R S T U V W X Y Z

The Black Angels - Black Grease tab

Great song from a great band, one of the baddest riffs of the modern era.

Verse

e------------------------------------------------------|
b------------------------------------------------------|
g------------------------------------------------------|
d------------------------------------------5-4-3-------|
a-----------------------------------------------5-4-3--|
e-3-3-3-6p3-3-3-3-3-3-6p3-3-3-3-3-3-6p3-3-3----------6-|

e-----------------------------------------------------|
b-----------------------------------------------------|
g-----------------------------------------------3b----|
d------------------------------------------5-3-0--5---|
a-----------------------------------------------------|
e-3-3-3-6p3-3-3-3-3-3-6p3-3-3-3-3-3-6p3-3-3-----------|


chorus

e--------------------------------------------------------------------------|
b--------------------------------------------------------------------------|
g--------------------------------------------------------------------------|
d---------------------------------------3-4-5-3-4-5-3-4-5-5-5-5-5-5-5-5-5--|
a-3-4-5-3-4-5-3-4-5-5-5-5-5-5-5-5-5-5--------------------------------------|
e--------------------------------------------------------------------------|

They do some random fills after the chorus at parts, but they're really easy to figure 
whole song follows a pretty similar pattern. If you want to talk music or have any 
add me on msn at poop_sickle@msn.com
Tap to rate this tab
 
# A B C D E F G H I J K L M N O P Q R S T U V W X Y Z