Song name
# A B C D E F G H I J K L M N O P Q R S T U V W X Y Z

The Black Atlantic - Madagascar tab

Sorry - I'm still working on this. I've only got the intro done!

So basically, repeat this twice and then start the lyrics with the tab playing underneath. 

e|---1-------------------------------|
B|-3---------------------------------|
G|-0---0-2-3-------------------------|
D|------------0-1-3--0---------------|
A|---------------------6-8-5-3-1-----|
E|-----------------------------------|

e|---1-------------------------------|
B|-3---------------------------------|
G|-0---0-2-3-------------------------|
D|------------0-1-3--0---------------|
A|---------------------6-8-5-3-1-----|
E|-----------------------------------|

  Oh great wonderous world
e|---1-------------------------------|
B|-3---------------------------------|
G|-0---0-2-3-------------------------|
D|------------0-1-3--0---------------|
A|---------------------6-8-5-3-1-----|
E|-----------------------------------|
  
  How the dice of evolution came
e|---1-------------------------------|
B|-3---------------------------------|
G|-0---0-2-3-------------------------|
D|------------0-1-3--0---------------|
A|---------------------6-8-5-3-1-----|
E|-----------------------------------|

Up with a surprise
e|---1-------------------------------|
B|-3---------------------------------|
G|-0---0-2-3-------------------------|
D|------------0-1-3--0---------------|
A|---------------------6-8-5-3-1-----|
E|-----------------------------------|

To make the tiny particles come alive
e|---1-------------------------------|
B|-3---------------------------------|
G|-0---0-2-3-------------------------|
D|------------0-1-3--0---------------|
A|---------------------6-8-5-3-1-----|
E|-----------------------------------|


http://www.theblackatlantic.com/
Tap to rate this tab
 
# A B C D E F G H I J K L M N O P Q R S T U V W X Y Z