Song name
# A B C D E F G H I J K L M N O P Q R S T U V W X Y Z

The Black Belles - Charlene tab

This is my first tab I have made and I figured I would share it, it is the alternate 
version of Charlene without Stephen Colbert.

-----------------------------------------------------------------------------
			  Charlene - The Black Belles
-----------------------------------------------------------------------------
Tabbed by: Dylan Goffic
Email: break@dopefiends.net

Tuning: DADGBe

Intro pt.1
e|--------------------|
B|--------------------|
G|--------------------|
D|--------------------|
A|-----5-5-1-1-0-h1p0-|
D|-5-5----------------| Repeat

pt.2
e|-------------------------|
B|-------------------------|
G|-------------------------|
D|------5------------------|
A|-5-----5----1----5-3-1-0-|
D|-5-----------------------| x2

I split the solo into parts to its easier to learn.

Solo pt.1
e|----------------------------------------------------------|
B|-------13-14-14-14-14-14-14-14-14-14-14-13-11-13-11-------|
G|-12-15----------------------------------------------11-12-|
D|----------------------------------------------------------|
A|----------------------------------------------------------|
D|----------------------------------------------------------|

pt.2
e|---------------------------|
B|---------------------------|
G|-10-12-10------------------|
D|----------12-11-10-8-------|
A|---------------------10-10-|
D|---------------------------|

pt.3
e|------------------------|
B|------------------------|
G|------------------------|
D|-10-11--11---10-8-------|
A|------------------10-10-|
D|------------------------|

pt.4
e|----------------|
B|----------------|
G|----------------|
D|----------------|
A|---0-3-5-7-8-10-|
D|-5--------------|

pt.5
e|--------------------------------------------------|
B|--------------------------------------------------|
G|--------------------------------------------------|
D|-8-10-11--------11-8------------------------------|
A|---------------------10--10--10--10---8-7-5-3-0---|
D|------------------------------------------------5-|

Outro
e|--------------------|
B|--------------------|
G|--------------------|
D|--------------------|
A|-----5-5-1-1-0-h1p0-|
D|-5-5----------------| Repeat
Tap to rate this tab
# A B C D E F G H I J K L M N O P Q R S T U V W X Y Z