Song name
# A B C D E F G H I J K L M N O P Q R S T U V W X Y Z

The Black Keys - Lonely Boy tab

LONELY BOY
by The Black Keys

(From the upcoming album El Camino)
Tuning: D A D G B E

Intro

|---------------------------------|
|---------------------------------|
|---------------------------------|
|---------------------------------| X4
|---------------------------------|
|-2-2-2-2--5--2--2--2-2-2-2-0--0--|

|---------------------------------|
|--5-5--5-3-----------------------|
|-----------2-0-2--2-2--2-0-------|
|---------------------------2-0-2-|
|---------------------------------|
|---------------------------------|


Verse


|---------------------------------|
|--5--5--5--5---5-----------------|
|--4--4--4--4---4-----------------| X2
|---------------------------------|
|---------------------------------|
|---------------------------------|


|------------------------0--------|
|--5--5--5--5---3--3---5---5------|
|--4--4--4--4---4--4/7------------| X4
|---------------------------------|
|---------------------------------|
|---------------------------------|

Chorus

|---------------------------------------------------------|
|---------------------------------------------------------|
|---------------------------------------------------------|
|--2-2-2-2-2-2-2-2-2-2-2--5-5-5-5-5-5--7-7-7-7-7-7--------|
|--2-2-2-2-2-2-2-2-2-2-2--5-5-5-5-5-5--7-7-7-7-7-7--------|
|--2-2-2-5-5-2-2-2-2-2-2--5-5-5-5-5-5--7-7-7-7-7-7--------|

That should be it, these parts are just repeated throughout.

Enjoy!
Tap to rate this tab
# A B C D E F G H I J K L M N O P Q R S T U V W X Y Z