Song name
# A B C D E F G H I J K L M N O P Q R S T U V W X Y Z

The Bolshoi - Away tab

Away by THE BOLSHOI
Intro Guitar
By: Don Vallega






E--15----13-------15-------13----12-------12------11----10-------11----|
B-----15----15-15-------------13----13-13------------11----11-11-------|
G----------------------------------------------------------------------|
D----------------------------------------------------------------------|
A----------------------------------------------------------------------|
E----------------------------------------------------------------------|



E-------10----9-------9---------3---------|
B----------10---10-10-----------3---------|
G-------------------------------x---------|
D-------------------------------5---------|
A-----------------------------------------|
E-----------------------------------------|




E---3-----6--8---------6--8------6--3--------|
B---3-----6--8---------6--8------6--3--------|
G---x-----x--x---------x--x------x--x--------|
D---5-----8--10--------8--10-----8--5--------|
A--------------------------------------------|
E--------------------------------------------|

Tap to rate this tab
 
# A B C D E F G H I J K L M N O P Q R S T U V W X Y Z