Song name
# A B C D E F G H I J K L M N O P Q R S T U V W X Y Z

The Bosshoss - Break Free tab

/=slide
h=Hammer-on
p=pull of
intro
e-------------------------|-----------------------|
h-------------------------|----------2------------|p2
g-------------------------|---p2--2--2----p2--2---|p2
d---/2-2-2-0--------------|---p2--2-------p2--2---|
a---------------b2--0-----|-----------------------|
e-----------------------0-|-----------------------|

the Part with the Pull-Offs (after the | ) is played through the verse I think
its my first work and I'm sure it's not right :D so just post comments and help :D

verse:
e-----------------------|
h--------2-----------p2-|
g-p2--2--2----p2--2--p2-|
d-p2--2-------p2--2-----|
a-----------------------|
e-----------------------|

repeat it until the chorus
"and you'll be runnin..."

Then use the chords you find here too as power chords ;)

i hope i could help^^
Tap to rate this tab
 
# A B C D E F G H I J K L M N O P Q R S T U V W X Y Z