Song name
# A B C D E F G H I J K L M N O P Q R S T U V W X Y Z

The Brilliant Green - Round And Round tab

Round and Round
________________________________________________________________

standard tuning:
-----------------

       Am: x02210
    Fmaj7: 033210
 F#m7(b5): 034210
       Bm: x24432
        C: x32010
       Dm: xx0231
        F: 133211
        G: 320003

-----------------

INTRO:
{FIG 1} |Am       |Fmaj7     |F#m7(b5) |Fmaj7    |
       |Am       |Fmaj7     |F#m7(b5) |Fmaj7    |
{FIG 2} |Am       |Am        |Am       |Am       |


VERSE 1: 
{FIG 3}
Am  Bm  C          Am         Bm      C  
No, I   don't understand your cynical ways
Am        Bm              C
  All the things that you say
          Am   B       C
Will just come back to you
Am   Bm       C
  You spit on life
          Am         Bm       C
As if you though you couldn't care
Am         Bm          C
  You keep spitting on life
              Am   Bm        C              Am {FIG 1}
But don't you know That will just bring you down

         |Fmaj7     |F#m7(b5) |Fmaj7    |
Am       |Fmaj7     |F#m7(b5) |Fmaj7    |


VERSE 2:
{FIG 3}
Am  Bm  C          Am        Bm        C
And I   don't understand the faces you fake
Am        Bm              C
  All the things that you hate
          Am   Bm      C
Will just come back to you
Am          Bm       C
  You could probably say
         Am     Bm  C
It would happen any-way
Am          Bm       C               Am    Bm     C
  You could probably say it Cause it don't bother you


PRE-CHORUS 1:
            {FIG 4}
            Dm
It's a crime
       Am
Think about it
         F             G
And stop acting like a fool
          Dm
Yes, it's time
        Am
Can't ignore it
       F                   G   |G  F  |
Think about the things you do


CHORUS 1:
{FIG 5}
C         G
Round and round
    F         C
And up and down again
G           F
Through and through
Am        G
Round and round
    F      C
And one is two

  {FIG 7}
  Dm        Fmaj7
Enough is enough
             F#m7(b5)        F            Am {FIG 1}
You know bad karma will just come back to you

         |Fmaj7     |F#m7(b5) |Fmaj7    |
Am       |Fmaj7     |F#m7(b5) |Fmaj7    |


VERSE 3:
{FIG 3}
Am   Bm   C        Am        Bm         C
When will you understand the people you hurt?
Am          Bm              C
  Don't you know that those words
          Am   Bm      C
Will just come back to you
Am          Bm       C
  You would probably say
             Am      Bm  C
That they're hurting any-way
Am          Bm       C
  You could probably say it
          Am  Bm     C
Why don't it  bother you

PRE-CHORUS 2:
            {FIG 4}
            Dm
It's a crime
       Am
Living your life
        F            G
Without ever looking down
       Dm             Am
At the ground, at the flowers
           F                 C
Yeah, that you keep stepping on
      Dm             Am
And maybe you should notice
     F                    G
That they've done nothing to you
       Dm             Am
Or you might find out someday
            F           G
When things turn upside down
                               F
And those flowers step on you

CHORUS 2:
{FIG 5}
C         G
Round and round
    F         C
And up and down again
G           F
Through and through
Am        G
Round and round
    F      C
And one is two
  Dm        F
Enough is enough

C         G
Round and round
    F         C
And up and down again
G           F
Through and through
Am        G
Round and round
    F      
And one is two
    C      G       F
And coming back to you


OUTRO:
 {FIG 6}
 C    G    F
Enough is enough
C             G    F
Why won't you understand?
     C   G     F
That I've had enough
    C          G     F
And I've taken all I can
    C  G       F
And why do you do
C          G               F
All of the things that you do?
     C  G     F    
Yes, I   want you
  C           G  
I want you to understand
      {FIG 7}
      Dm        Fmaj7
That enough is enough
             F#m7(b5)        Fmaj7        C
You know bad karma will just come back to you

---------------------------------------------------------------------

FIG 1:

  Am               Fmaj7            F#m7(b5)         Fmaj7
e|--------0-------|--------0-------|--------0-------|--------0-------|
B|----------1-----|------1---1-----|------1---1-----|------1---1-----|
G|------2---------|----2-----------|----2-----------|----2-----------|
D|----2-------2---|--3---------3---|--4---------4---|--3---------3---|
A|--0-------------|----------------|----------------|----------------|
E|----------------|----------------|----------------|----------------|

  Am               Fmaj7            F#m7(b5)         Fmaj7
e|--------0-------|--------0-------|--------0-------|--------0-------|
B|----------1-----|------1---1-----|------1---1-----|------1---1-----|
G|------2---------|----2-----------|----2-----------|----2-----------|
D|----2-------2---|--3---------3---|--4---------4---|--3---------3---|
A|--0-------------|----------------|----------------|----------------|
E|----------------|----------------|----------------|----------------|



FIG 2:

  Am               Am               Am               Am
e|----------------|--0-------------|----------------|-0--------------|
B|--------1-------|----1-----------|----------------|-1--------------|
G|------2---------|------2-2/4-2-0-|-2-----1--------|----------------|
D|----2-------2---|----------------|-----2-------2--|----------------|
A|--0-------2-----|----------------|---0-----0h2----|----------------|
E|----------------|----------------|----------------|----------------|



FIG 3:

  Am      Bm       C                
e|----------------|--------0-------|
B|-----1------1---|----------1-----|
G|----------------|------0-----0---|
D|---2------0-----|----2-----------|
A|-0------2-------|--3-------------|
E|----------------|----------------|



FIG 4:

  Dm               Am               F               G
e|-1--------------|--------0-------|--------1-------|--------3-------|
B|-3--------------|------1-----1---|----------1-----|------------0---|
G|-2--------------|----2-----2-----|------2-----2---|------0---0-----|
D|-0--------------|--2-------------|--3-------------|----0-----------|
A|----------------|----------------|----------------|----------------|
E|----------------|----------------|----------------|--3-------------|

  Dm               Am               F               [1] G                     F
e|--------1-------|--------0-------|----------1-----|--------3-------|--3-------------||
B|------3---3-----|------1-----1---|--------1-------|----------3-----|----3------1----||
G|----2-------2---|----2-----2-----|------2-----2---|------3-----0---|------0----2----||
D|--0-------------|--2-------------|--3-------------|----0-----------|-----------3----||
A|----------------|----------------|----------------|----------------|--------3-------||
E|----------------|----------------|----------------|--3-------------|--------1-------||

 [2] C             Dm               Am               F                G            
e|--------0-------|-1--------------|--------0-------|----------1-----|--------3-------|
B|------1---1-----|-2--------------|------1-----1---|--------1-----1-|------0---0-----|
G|----0-------0---|-2--------------|----2-----2-----|------2-----2---|----0-------0---|
D|----------------|-0--------------|--2-------------|--3-------------|--0-------------|
A|--3-------------|----------------|----------------|----------------|----------------|
E|----------------|----------------|----------------|----------------|----------------|

  Dm               Am               F                G                      
e|--------1-------|--------0-------|--------1-------|--------3-------|
B|------3-----3---|------1-----1---|------1-----1---|------3---3-----|
G|----2-----2-----|----2-----2-----|----2-----2-----|----0-------0---|
D|--0-------------|--2-------------|--3-------------|--0-------------|
A|----------------|----------------|----------------|--2-------------|
E|----------------|----------------|----------------|----------------|

  G                G                G       F                     
e|--3-----3-------|--------3-------|--3-------------|
B|----3-------3---|------3-----3---|------3----1----|
G|------0---0-----|----0-----0-----|----0------2----|
D|----------------|--0-------------|-----------3----|
A|----------------|--2-------------|--------3-------|
E|----------------|----------------|--------1-------|



FIG 5:

  C       G        F                C       G        F                     
e|-3------3-------|-1--------------|-3------3-------|-1--------------|
B|-1------1-------|-1--------------|-1------1-------|-1--------------|
G|-0------0-------|-2--------------|-0------0-------|-2--------------|
D|-2------0-------|-3--------------|-2------0-------|-3--------------|
A|-3------2-------|-3--------------|-3------2-------|-3--------------|
E|----------------|----------------|----------------|----------------|

  Am      G        F       C        [1]                
e|------0---------|----------------||
B|------------1---|------1---------||
G|----------------|------------0---||
D|----2-----0-----|----------2-----||
A|--0-------------|----3---3-------||
E|--------3-------|--1-------------||


 [2] Dm            F                 
e|----------------|---------------------|
B|--3-----3-------|---------------------|
G|--2---2-----2---|-2-------------------|
D|--0-------0-----|-3--2--2--2--2-2-2-2-|
A|----------------|-3-------------------|
E|----------------|-1-------------------|

  C       G        F                C       G        F                     
e|-3------3-------|-1--------------|-3------3-------|-1--------------|
B|-1------1-------|-1--------------|-1------1-------|-1--------------|
G|-0------0-------|-2--------------|-0------0-------|-2--------------|
D|-2------0-------|-3--------------|-2------0-------|-3--------------|
A|-3------2-------|-3--------------|-3------2-------|-3--------------|
E|----------------|----------------|----------------|----------------|

  C       G        F                C       G        F                     
e|-3------3-------|-1--------------|-3------3-------|-1--------------|
B|-1------1-------|-1--------------|-1------1-------|-1--------------|
G|-0------0-------|-2--------------|-0------0-------|-2--------------|
D|-2------0-------|-3--------------|-2------0-------|-3--------------|
A|-3------2-------|-3--------------|-3------2-------|-3--------------|
E|----------------|----------------|----------------|----------------|



FIG 6:

  C       G        F                C       G        F                     
e|-3------3-------|-1--------------|-3------3-------|-1--------------|
B|-1------1-------|-1--------------|-1------1-------|-1--------------|
G|-0------0-------|-2--------------|-0------0-------|-2--------------|
D|-2------0-------|-3--------------|-2------0-------|-3--------------|
A|-3------2-------|-3--------------|-3------2-------|-3--------------|
E|----------------|----------------|----------------|----------------|

  C       G        F                C       G        F                     
e|-3------3-------|-1--------------|-3------3-------|-1--------------|
B|-1------1-------|-1--------------|-1------1-------|-1--------------|
G|-0------0-------|-2--------------|-0------0-------|-2--------------|
D|-2------0-------|-3--------------|-2------0-------|-3--------------|
A|-3------2-------|-3--------------|-3------2-------|-3--------------|
E|----------------|----------------|----------------|----------------|
  C       G        F                C       G        F                     
e|-3------3-------|-1--------------|-3------3-------|-1--------------|
B|-1------1-------|-1--------------|-1------1-------|-1--------------|
G|-0------0-------|-2--------------|-0------0-------|-2--------------|
D|-2------0-------|-3--------------|-2------0-------|-3--------------|
A|-3------2-------|-3--------------|-3------2-------|-3--------------|
E|----------------|----------------|----------------|----------------|
  C       G        F                C       G        F                     
e|-3------3-------|-1--------------|-3------3-------|-1--------------|
B|-1------1-------|-1--------------|-1------1-------|-1--------------|
G|-0------0-------|-2--------------|-0------0-------|-2--------------|
D|-2------0-------|-3--------------|-2------0-------|-3--------------|
A|-3------2-------|-3--------------|-3------2-------|-3--------------|
E|----------------|----------------|----------------|----------------|



FIG 7:

  Dm               Fmaj7            F#m7(b5)         Fmaj7   
e|--------1-------|--------0-------|--------0-------|--------0-------|
B|------3---------|------1---1-----|------1---1-----|------1---1-----|
G|----2-------2---|----2-----------|----2-----------|----2-----------|
D|--0-------0-----|--3---------3---|--4---------4---|--3---------3---|
A|----------------|----------------|----------------|----------------|
E|----------------|----------------|----------------|----------------|

  C            
e|----------------|
B|----------------|
G|----------------|
D|----------------|
A|----------------|
E|----------------|
Tap to rate this tab
 
# A B C D E F G H I J K L M N O P Q R S T U V W X Y Z