Song name
# A B C D E F G H I J K L M N O P Q R S T U V W X Y Z

The Bruisers - Independence Day tab

This song is by the legendary punk rock/oi band The bruisers!!!

Independence Day, about the berlin wall coming down!

Tabbed by darsh.



Intro 
|------------------------|
|------------------------|
|------------------------|
|----3-------------------| goes throughout the whole song
|555---3----------------3|
|--------33-5-555-6-666--|

Intro 
|------------------------|
|------------------------|
|------------------------|
|----3-------------------| 
|555---3----------------3|
|--------33-5-555-6-666--|
Tap to rate this tab
# A B C D E F G H I J K L M N O P Q R S T U V W X Y Z