Song name
# A B C D E F G H I J K L M N O P Q R S T U V W X Y Z

The Burning Hotels - Stuck In The Middle tab

Stuck in the Middle - The Burning Hotels
-----------------------------------------------------------------
Band url: burninghotels.net/

Tabbed by: mr.mick.d
Email: keeperkid1@gmail.com

Tuning: Standard

Intro:
*(down strum on each 1/8th note)
   F#              E/G#	           B/Eb	           B/Eb
e|-----------------------------------------------------------------------|
B|-----------------------------------------------------------------------|
G|-----------------------------------------------------------------------|  X3 then
D|-4-4-4-4-4-6-6-6--2-2-2-2-2-2-2-2--------------------------------------|
A|----------------------------------2-2-2-2-2-2-----1-1-1-1-1-1-1-1------|
E|----------------------------------------------2-2----------------------|

   F#              E/G#             B/Eb           B/Eb
e|------------------------------------------------------------------|
B|------------------------------------------------------------------|
G|------------------------------------------------------------------|  alternate
D|-4-4-4-4-4-6-6-6--2-2-2-2-2-2-2-2---------------------------------|
A|----------------------------------2-2-2-2-2-2-2-2-2-2-2-2-2-2-2-2-|
E|------------------------------------------------------------------|

Verse:
    I got in...                           ...as  u-su-al, I'm stuck...

   B                             B               F#         E/G#        B/Eb
e|-----------------------------|-----------------------------------------11-|
B|-----------------------------|-----------------7--7--7--7-----------------|
G|-----------------------------|-6-6-6-6-8-8-8-8-------------8--7-8-8-7-----|
D|-6-6-6-6-9-9-9-9- X3, then --|--------------------------------------------|  X3
A|-----------------------------|--------------------------------------------|
E|-----------------------------|--------------------------------------------|

     *play the last note for two bars (8 times)

Bridge(end of third verse):
  (And I'm)
   drow------ning             in my--self again...
    F#              E/G#            B/Eb            B/Eb
e|---------------------------------------------------------------------|
B|---------------------------------------------------------------------|
G|---------------------------------------------------------------------|  X2
D|--4-4-4-4-4-6-6-6--2-2-2-2-2-2-2-2-----------------------------------|
A|-----------------------------------2-2-2-2-2-2-----1-1-1-1-1-1-1-1---|
E|-----------------------------------------------2-2-------------------|

The second time around, use the alternate tab shown earlier, then do this

	*Bend the notes a little each time to give it some vibrato
     B                           Em7        B       Em7
e|--------------------------------6---------7--------6---------------|
B|--------------------------------7---------7--------7---------------|
G|--------------------------------6-  X 4  -9-  X4  -6-  X4  --------|
D|--------------------------------8---------8--------8---------------|
A|----------------------------6---6---------8--------6---------------|
E|---7----7-7----7-7----7-7-2---------------7------------------------|
     *the note actually drops to Eb on the E string here, so if you want to take the 
trouble to tune your guitar down a half step, be my guest, but the chords are easier this way.

The section where the song goes "What a night, I am dead" for times, do the following:

B X4     *Just strum down once on the 1st and 3rd beats.
Em7 X4   (listen to the song if you don't get it)
B X4
Em7 X4   *play this progression twice

Then it goes back to the verse   (X3)

After that verse it plays the bridge part again (X3)

Outro
   F#                E/G#            B           end on B
e|------------------------------------------------------7------|
B|------------------------------------------------------7------|
G|------------------------------------------------------9------|
D|--4-4-4-4-4-6-6-6--2-2-2-2-2-2-2-2--------------------8------|
A|------------------------------------2 (let ring)------8------|
E|------------------------------------------------------7------|
Tap to rate this tab
# A B C D E F G H I J K L M N O P Q R S T U V W X Y Z