Song name
# A B C D E F G H I J K L M N O P Q R S T U V W X Y Z

The Casanovas - Shake It chords

	The Casanovas - Shake It
	(2004)

	~ = let ring


   Intro/verse riff:
e||---------------------------------------------------------------------|
b||---------------------------------------------------------------------|
g||---------------------------------------------------------------------|
d||---4--4------------2--2----------------------------------------------|
a||---2--2-5-2-4-2----0--0-4-0-2-0----2--2-5-2-4-2----2--2-5-2-0-1~-----|
E||-----------------------------------0--0------------0--0--------------|

   
   Bridge:
   "I was just gonna say, but I  won't   -  anyway"
e||---------------------------------------------------------------------|
b||---------------------------------------------------------------------|
g||--------7--7--7-7---------------------------9--9-9--9-9--------------|
d||--------7--7--7-7---7--7--7-7---5--5--5-5---9--9-9--9-9--------------|
a||--------5--5--5-5---7--7--7-7---5--5--5-5---7--7-7--7-7--------------|
E||--------------------5--5--5-5---3--3--3-3----------------------------|

			      Gt.2 (optional)
                                             ---------------------------|
                                             --9--9-10- 10-9------------|
                                             --9--9-9---9--9------------|
                                             --9--9-9---9--9------------|
                                             ---------------------------|
                                             ---------------------------|

   Interlude:
e||---------------------------------------------------------------------|
b||---------------------------------------------------------------------|
g||---4~--------------2~------------------------------------------------|
d||---4~--------------2~---------------2~-------------------------------|
a||---2~--------------0~---------------2~-------------------------------|
E||------------------------------------0~-------------------------------|

   -Solo goes from B
   

   -The riff could be played like this as well:
e||---------------------------------------------------------------------|
b||---------------------------------------------------------------------|
g||---------------------------------------------------------------------|
d||---4--4------------2--2----------------------------------------------|
a||---2--2-5-2-4-2----0--0-4-0-2-0----2--2-5-0-4-0----2--2-5-2-0-1~-----|
E||-----------------------------------0--0------------0--0--------------|
					     *   *
  
   -just play it as you like... this is at least better version
    than the others in Ultimate Guitar
Tap to rate this tab
 
# A B C D E F G H I J K L M N O P Q R S T U V W X Y Z