Song name
# A B C D E F G H I J K L M N O P Q R S T U V W X Y Z

The Cast Of Cheers - Animals tab

Artist: The Cast of Cheers
Title: Animals
Album: Family (2012)
Transcribed by: Aleks Kearney
Email: alekskearney@hotmail.com

Tuning: EADGBe (Standard)


Verse(according to music video 1:01-1:29)
e|--------------------------------------------------------------------|
B|--17--------------------------17------------------------------------|
G|-----16--16----18-16--16---------16--16----18-16--16---18-16--16----|
D|-------19--17-------19--17---------19--17-------19--17------19--17--|
A|--------------------------------------------------------------------|
E|--------------------------------------------------------------------|
                                                                        x2

Chorus(1:29-1:43)
e|-----------------|
B|-----------------|
G|-----------------|
D|---777--77777----|
A|---777--77777----|
E|---555--55555----|
                     x8


-Verse-(1:43-1:57--|
-Chorus-(2:12-2:25-|

Bridge -(2:25-3:36)
-part 1-
e|---------------------------------------------------|
B|---------------------------------------------------|
G|--18--16--14--18--16--14--18--16--14--19-18-16-14--|
D|---------------------------------------------------|
A|---------------------------------------------------|
E|---------------------------------------------------|
                                                       x2

-part 2- (varies a little each time)
e|---------------------------------------------------------------------|
B|---------------------------------------------------------------------|
G|--18-16-14-19p16h18s14h16p14---------------------------------14-13---|
D|-----------------------------16h19s14h16p-------------------------14-|
A|-----------------------------------------17-17p16p14h16h17-12--------|
E|---------------------------------------------------------------------|

Outro(3:09-3:36)
-repeat Bridge part2 until end-


Any comments are appreciated.
Tap to rate this tab
# A B C D E F G H I J K L M N O P Q R S T U V W X Y Z