Song name
# A B C D E F G H I J K L M N O P Q R S T U V W X Y Z

The Chapman Family - Anxiety tab

Band website: http://thechapmanfamilyisnotacult.com/

Intro

G-G-C-G

e|--------------------------------------|
B|--------------------------------------|
G|--0-0-0-0-11-11-11-11-4-4-4-4-7-7-7---|
D|--------------------------------------|
A|--------------------------------------|
E|--------------------------------------| x3

e|--------------------------------------|
B|--------------------------------------|
G|--12-12-12-12-12-12-12-12-------------|
D|--------------------------------------|
A|--------------------------------------|
E|--------------------------------------|

G                                          C      G F
I know Iíve relied on you, I've had it too easy.
G
I list all the people to blame,
                C                 G
I wonít die for you, it's unnecessary.

         Em       C                 G
And they say your best isnít good enough.
         Em       C                 G
And they say your best isnít good enough.
               Em    C               G
I need to hear yours, I need to hear yours.
         Em       C                 G
And they say your best isnít good enough.

Repeat Intro

G                                         C         G F
I feel, I do the best I can, but I'm just wasteful.
G
She says she still believes in love,
               C                 G
All this anxiety, it does nothing for me.

         Em       C                 G
And they say your best isnít good enough.
         Em       C                 G
And they say your best isnít good enough.
               Em    C               G
I need to hear yours, I need to hear yours.
         Em       C                 G
And they say your best isnít good enough.

Repeat intro

Bridge
e|----------------------------------------------|
B|----------------------------------------------|
G|--12-12-12-12-11-11-11-11-9-9-9-9-7-7-7-7-----|
D|----------------------------------------------|
A|----------------------------------------------|
E|----------------------------------------------| X3

e|--------------------------------------|
B|--------------------------------------|
G|--4-4-4-2-0-0-0-0-0-0-0-0-------------|
D|--------------------------------------|
A|--------------------------------------|
E|--------------------------------------|

G
I'm sick of wasting my time.
                       C      G
I'm sick of wasting my time.

G                                           C     G
I know, I've relied on you, I've had it too easy.
G
I know all the people to blame,
                      C                        G
Iím not gonna die for you, itís all so unnecessary.

         Em       C                 G
And they say your best isnít good enough.
         Em       C                 G
And they say your best isnít good enough.
               Em    C               G
I need to hear yours, I need to hear yours.
         Em       C                 G
And they say your best isnít good enough.

Outro

e|----------------------------------------------|
B|----------------------------------------------|
G|--12-12-12-12-11-11-11-11-9-9-9-9-7-7-7-7-----|
D|----------------------------------------------|
A|----------------------------------------------|
E|----------------------------------------------| X4

Tabbed by Jason Callewaert
Tap to rate this tab
 
# A B C D E F G H I J K L M N O P Q R S T U V W X Y Z