Song name
# A B C D E F G H I J K L M N O P Q R S T U V W X Y Z

The Chordettes - Mr Sandman tab

e|----------5--3-------------3--6--5-----------|
B|-----3--6------6--3------4-------------------|
G|---3----------------3--5---------------------| 
D|---------------------------------------------|
A|---------------------------------------------|
E|---------------------------------------------|
   verse and chorus
e|---7--------6---------6---------4---------4---------2---------2--------1----0
B|---7--------6---------7---------4---------5---------2---------5--------1----0
G|---8--------7---------8---------5---------6---------3---------4--------2----1
D|---9--------8---------8---------6---------6---------4---------4--------3----2
A|---9--------8---------6---------6---------4---------4---------2--------3----2
E|---7--------6---------6---------4---------4---------2---------2--------1----0  
 
strumming pattern is easy to figure out. 
order : intro(x2), verse+chorus(x2), intro(x1), verse+chorus till end of song.
    
Tap to rate this tab
# A B C D E F G H I J K L M N O P Q R S T U V W X Y Z