Song name
# A B C D E F G H I J K L M N O P Q R S T U V W X Y Z

The Civil Wars - Billy Jean tab

Sucked to notice that there is no Billy Jean tab! Transcribed it as best I could. My 
first tab, so bear with me. If you spot anything wrong, please contact me on rasmus2u@hotmail.com

Standard tuning and no capo

Intro part1
                                     let ring
E|------0---------------------0------5--------------------------------------|
A|------0---------3----0------0------5--------------------------------------|
D|---------0------4----0---------0------------------------------------------|
G|--------------4-----------------------------------------------------------|
B|----------2---------------------2-----------------------------------------|
E|---0---------------------0------------------------------------------------|

Intro part2/Verse part1
                               dont let ring
E|------0----------------------0--------------------------------------------|
A|------0---------3----0-------0--------------------------------------------|
D|---------0------4----0-----0-----0----------------------------------------|
G|--------------4-----------------------------------------------------------|
B|----------2---------------------------------------------------------------|
E|---0---------------------0--------0---------------------------------------|

Verse part2 (I am the oooone...)
E|--------------------------------------------------------------------------|
A|--------1p0---------0-----1---0-------------------------------------------|
D|--------2-----------0-----2---0-------------------------------------------|
G|------2-----------2-------------------------------------------------------|
B|--0----------0---------0--------------------------------------------------|
E|---------------0------------0---------------------------------------------|

                                   dont let ring
E|------0---------5----0-------0--------------------------------------------|
A|------0---------5----0-------0--------------------------------------------|
D|---------0----0------------0----0-----------------------------------------|
G|--------------------------------------------------------------------------|
B|--------------------------------------------------------------------------|
E|---0------0--------------0-------0----------------------------------------|

Chorus:

C
People always told me
Em
Be careful what you do
C
Don't go around breaking young girls' hearts
Em
And mama always told me
C
Be careful who you love
Am
Be careful what you do
Em
Because a lie becomes the truth
Tap to rate this tab
# A B C D E F G H I J K L M N O P Q R S T U V W X Y Z