Song name
# A B C D E F G H I J K L M N O P Q R S T U V W X Y Z

The Civil Wars - Dance Me To The End Of Love tab

-------------------------------------------------------------------------------
                  DANCE ME TO THE END OF LOVE - The Civil Wars
-------------------------------------------------------------------------------
Tabbed by: Rob Hinst
E-mail: rob@hinst.net

Tuning: Standard

Chords:

Dm: xx0231
Am: x02210
E7: x22130

Intro/bridge:

e|-------------------------------------------|
B|-8\6-6---8-8\6-6-8---6-6\5-5---6-6\5-5-6---|
G|-9\7-7---9-9\7-7-9---7-7\5-5---7-7\5-5-7---|
D|-------------------------------------------|
A|-------------------------------------------|
E|-------------------------------------------|

   ^  ^ V  ^  ^ V  ^  ^ V  ^  ^ V  ^  ^ V  ^  ^ V  ^ 

e|----0-0-----0-0-----0-0-----0-0-----0-0-----0-0----------------|
B|----3-3-----3-3-----3-3-----3-3-----1-1-----1-1----------------|
G|----1-1-----1-1-----1-1-----1-1-----2-2-----2-2----------------|
D|-2--2-2-----2-2--2--2-2-----2-2-----2-2--2--2-2----------------|
A|----2-2--2--2-2-----2-2--2--2-2--0--0-0-----0-0--0-------------|
E|---------------------------------------------------------------|

Verse:

(same picking pattern as above)

First play this 3 times:

e|----1-1-----1-1-----1-1-----1-1-----0-0-----0-0-----0-0-----0-0------------|
B|----3-3-----3-3-----3-3-----3-3-----1-1-----1-1-----1-1-----1-1------------|
G|----2-2-----2-2-----2-2-----2-2-----2-2-----2-2-----2-2-----2-2------------|
D|-0--0-0-----0-0--0--0-0-----0-0-----2-2--2--2-2-----2-2--2--2-2------------|
A|---------0---------------0-------0--0-0-----0-0--0--0-0-----0-0------------|
E|---------------------------------------------------------------------------|

Then, for "And dance me to the end of love," play this twice:

e|----0-0-----0-0-----0-0-----0-0-----0-0-----0-0-----0-0-----0-0------------|
B|----3-3-----3-3-----3-3-----3-3-----1-1-----1-1-----1-1-----1-1------------|
G|----1-1-----1-1-----1-1-----1-1-----2-2-----2-2-----2-2-----2-2------------|
D|-2--2-2-----2-2--2--2-2-----2-2-----2-2--2--2-2-----2-2--2--2-2------------|
A|----2-2--2--2-2-----2-2--2--2-2--0--0-0-----0-0--0--0-0-----0-0------------|
E|---------------------------------------------------------------------------|


During the parts where they sing "La la la..." play the bridge again

************************************

| \   slide down
| ^   downstroke
| V   upstroke

************************************
Tap to rate this tab
# A B C D E F G H I J K L M N O P Q R S T U V W X Y Z