Song name
# A B C D E F G H I J K L M N O P Q R S T U V W X Y Z

The Cloud Room - Hey Now Now tab

The Cloud Room: Hey Now Now
Tabbed by: Hariz05 (myspace.com/hariz05)
Tunning: Standard (EADGBe)

PLEASE RATE!

[INTRO]
e|----------------------------------|
B|----------------------------------|
G|--0-0-0-0-0-0-0—0-0-0-0-0-0-0-0-0-|
D|-2-2-2-2-2-2-2-2-2-2-2-2-2-2-2-2--|
A|----------------------------------|
E|----------------------------------|

e|-------------------0-0-0-0-0-0-0-0|
B|------------------3-3-3-3-3-3-3-3-|
G|--0-0-0-0-0-0-0-0-----------------|
D|-3-3-3-3-3-3-3-3------------------|
A|----------------------------------|
E|----------------------------------|

[VERSE]

   C                                         E
e|-0-----------------------------------------0--|
B|-1-----------------------------------------0--|
G|-0-----------------------------------------1--|
D|-2-----------------------------------------2--|
A|-3-----------------------------------------2--|
E|----------------------------------------------|
   Hey now now, they'll find you when you're sleeping, now now 

                                         F
e|---------------------------------------0------|
B|---------------------------------------1------|
G|---------------------------------------2------|
D|---------------------------------------3------|
A|---------------------------------------0------|
E|----------------------------------------------|
   They’ll reach in and grab what you're dreaming, now now

                               Dm
e|------------------------------0-0-0-0-0-0-0-0-|
B|-----------------------------3-3-3-3-3-3-3-3--|
G|----------------------------------------------|
D|----------------------------------------------|
A|----------------------------------------------|
E|----------------------------------------------|
   Cut it up and slip it back in, and I know, and I know, and I know it 

   C                                    E
   Hey now now, the smallest things are crushing me now
                               F
   The crush crush crush is so comforting now 

                                  Dm
e|----------------------------------------------|
B|----------------------------------------------|
G|----------------------------------------------|
D|--------------------------------00-00-00-00---|
A|----------------------------------------------|
E|----------------------------------------------|
   Did the earth just slam in the sun, and I know, and I know, and I know it 
  
   E                        Dm
e|----------------------------------------------|
B|----------------------------------------------|
G|----------------------------------------------|
D|-222222222222222----------000000000000000-----|
A|----------------------------------------------|
E|----------------------------------------------|         
   Won’t undo their past by walking and talking backwards 

[CHORUS 1] x2

C
Hey now now, we're goin' down down 
       E
and we ride the bus there and pay the bus fare 
      F
or we find a new reason, a new way of living 
       G
and we breathe it in and try to dream again

*[Repeat INTRO then VERSE]*

[CHORUS 2] x2

C
Hey now now, we're goin' down down 
       E
and we ride the bus there and pay the bus fare 
      F
or we find a new reason, a new way of living 
       G
and we shout it out and try to dream again

[BRIDGE]

   C    Am   E
e|-3-3--5-5------------------------------------|
B|-5-5--5-5--9-9-------------------------------|
G|-5-5--5-5--9-9--11111111---------------------|
D|-5-5--7-7--9-9--22222222---------------------|
A|-3-3--7-7--7-7--22222222---------------------|
E|------5-5------------------------------------|
   Now  Now  Now …

e|-3-3--5-5-------------------------------------|
B|-5-5--5-5--9999-99-9999-99--------------------|
G|-5-5--5-5--9999-99-9999-99--------------------|
D|-5-5--7-7--9999-99-9999-99--------------------|
A|-3-3--7-7--7777-77-7777-77--------------------|
E|------5-5-------------------------------------|
             La-da da-ta la-da da-ta …

*[Repeat CHORUS 1] Strum each chord once
*[Repeat CHORUS 2] x2

Enjoy! Any mistakes please PM me: hariz05@gmail.com
and PLEASE RATE!
Tap to rate this tab
# A B C D E F G H I J K L M N O P Q R S T U V W X Y Z