Song name
# A B C D E F G H I J K L M N O P Q R S T U V W X Y Z

The Color Green - Girl tab

-------------------------------------------------------------------------------
			     GIRL - The Color Green
-------------------------------------------------------------------------------
Tabbed by: Kristoffer Møller
Email: ondlaks@sol.dk

Tuning: Standard (EADGBe)

Intro:
e|-----------|----------------------|
B|-------3---|------3---------------|
G|---2s4-----|--2s4----4-2-0-0h2-0--|
D|-----------|----------------------|
A|-----------|---------------3------|
E|-----------|----------------------|

Interlude/backing for piano:

e|---------------------------------|-----------------------------------|
B|-3-----0-3-----0-3-----0-3-----0-|-3-----0-3-----0-3-----0-3-----0---|
G|-----0-------0-------0-------0---|-----0-------0-------0-------0-----|
D|---0-------0-------0-------0-----|---2-------2-------2-------2-------|
A|---------------------------------|-3-------3-------3-------3---------|
E|-3-------3-------3-------3-------|-----------------------------------|

Verse:

e|-------0-------------------------|-----------------------------------|
B|-3-------3-----0-3-----0-3-----0-|-3-----0-3-----0-3-----0-3-----0---|
G|-----0-------0-------0-------0---|-----0-------0-------0-------0-----|
D|---0-------0-------0-------0-----|---2-------2-------2-------2-------|
A|---------------------------------|-3-------3-------3-------3---------|
E|-3-------3-------3-------3-------|-----------------------------------|


                        Cadd9
But i'm Not Lookin' For Love

Chorus:

           Cadd9
And I Will Release You
                 G
From All Of Your Torment
        Am                     Cadd9
Stir Up Trouble That You Can't ignore
                  Cadd9
And I'll Tell The World
                 G
I'll Tell Them A Story
            D            Cadd9         Cadd9(1 strum)
I'll Tell A Story To The World

...About A Girl

-----------------
| /  slide up   |
| \  slide down |
| h  hammer-on  |
| p  pull-off   |
| ~  vibrato    | 
| +  harmonic   |
| x  Mute note  |
-----------------
Tap to rate this tab
 
# A B C D E F G H I J K L M N O P Q R S T U V W X Y Z