Song name
# A B C D E F G H I J K L M N O P Q R S T U V W X Y Z

The Connels - 74 - 75 tab

-------------------------------------------------------------------------------
                                                    The Connels - 74 75
-------------------------------------------------------------------------------

Tabbed by: Jeroen0011 


Copy this url to see me playing this (could be handy :p)

http://www.youtube.com/watch?v=4Z1D3wDWxkg


Tuning: Standard


   Intro

e|-----------------------------------------------------|
B|-----------------------------------------------------|
G|-----------------------------------------------------| X2
D|-----------------------------------------------------|
A|------6-4-2---2-----------------6-4-2---2------------|
E|--4---------4----2--4-4-----4---------4----2--4-4----|


    Solo

e|--------------4-2--------------2-------------------------------|
B|--4-2-0-4-2-0-----4--4-7\4-------------------------------------|
G|---------------------------3-4---3-43443-----------------------|
D|-------------------------------------------4--4/8-9-8-6-4-4h6--|
A|---------------------------------------------------------------|
E|---------------------------------------------------------------|

e|--------------4-2------4-2---4-2-------------------------------|
B|--4-2-0-4-2-0-----4--4-----4-----4-0-4h5-4~--------------------|
G|-----------------------------------------------4-3-1-----------|
D|---------------------------------------------------------------|
A|---------------------------------------------------------------|
E|---------------------------------------------------------------|


    Improvisation part (got no raison ...)

e|--------------------------------------------------|
B|---------------5-5-5-4---4------------------------|
G|--4-6-4----------------6----6-4---4-4-4-----------|
D|--------4--4-6------------------6-------4~--------|
A|--------------------------------------------6-6---|
E|--------------------------------------------4-4---|

e|-----------------------------------------------------|
B|-----------------------------------------------------|
G|--8-6-6---------------6-8----8-6-6-------------------|
D|--------9-6-9---6-9-9-----9--------9-6-9-6---6-------|
A|--------------9----------------------------9---6-4~--|
E|-----------------------------------------------------|


Ending part

e|----------6---8-6--10-6-8-6-6----6------6-6-----6-8-6--10-6-8-6-5-~-|
B|--3/6-6-8---8----6-----------8-6--8-6-------6-8------6--------------|
G|--------------------------------------8~----------------------------| X7
D|--------------------------------------------------------------------|
A|--------------------------------------------------------------------|
E|--------------------------------------------------------------------|



************************************

| /   slide up
| \   slide down
| h   hammer-on
| p   pull-off
| ~   vibrato
| +   harmonic
| x   Mute note
| b   Bend
| pb  Pre-bend
| br  Bend release
| pbr Pre-bend release
| brb Bend release bend

************************************
Tap to rate this tab
# A B C D E F G H I J K L M N O P Q R S T U V W X Y Z