Guitaretab - guitar tabs
Song name
# A B C D E F G H I J K L M N O P Q R S T U V W X Y Z

The Constantines - Arizona tab

-------------------------------------------------------------------------------
			     Arizona – The Constantines
                             http://www.constantines.ca/
-------------------------------------------------------------------------------
Tabbed by: deHufter
Email:

Tuning: normal

Song begins in 5/4 measure, listen for the timing

Guitar 1 (0:00 – 0:12)
e|-------------------------------------------------------------------------|
B|-------------------------------------------------------------------------|
G|-------------------------------------------------------------------------|
D|---7---------------------------------------------------------------------|
A|---7-(let ring)----------------------------------------------------------|
E|---5---------------------------------------------------------------------|

Guitar 2 (0:00 – 0:12)
e|-------------------------------------------------------------------------|
B|-------------------------------------------------------------------------|
G|-------7-----------------------------------------------------------------|
D|---7-7-5--5-5------------------------------------------------------------|
A|-------------------------------------------------------------------------|
E|-------------------------------------------------------------------------|

Guitar 2 (0:12 – 0:37)
e|-------------------------------------------------------------------------|
B|-------------------------------------------------------------------------|
G|-------7-----------------------------------------------------------------|
D|-------5--5-5------------------------------------------------------------|
A|---7-7-------------------------------------------------------------------|
E|-------------------------------------------------------------------------|

Guitar 1 (0:12 – 0:29)
e|-------------------------------------------------------------------------|
B|-------------------------------------------------------------------------|
G|-----7---5-(let ring) 7--------------------------------------------------|
D|--5----5-----------------------------------------------------------------|
A|-------------------------------------------------------------------------|
E|-------------------------------------------------------------------------|

Guitar 1 (0:29 – 0:51)
e|--------------------------------------------------------------------------|
B|--------------------------------------------------------------------------|
G|--------------------------------------------------------------------------|
D|---7----------------------------------------------------------------------|
A|---7---lots of times------------------------------------------------------|
E|--------------------------------------------------------------------------|

Guitar 2 (0:44 – 0:45)
e|-------------------------------------------------------------------------|
B|-------------------------------------------------------------------------|
G|-------------------------------------------------------------------------|
D|---7---5\3---------------------------------------------------------------|
A|---7---5\3---------------------------------------------------------------|
E|---5---3\1---------------------------------------------------------------|


Guitar 1 (0:51 – 1:04)
e|-------------------------------------------------------------------------|
B|-------------------------------------------------------------------------|
G|-------------------------------------------------------------------------|
D|--7----------------------------------------------------------------------|
A|--7-lots of times--------------------------------------------------------|
E|--5----------------------------------------------------------------------|

Guitar 2 (0:51 – 1:04)
e|-------------------------------------------------------------------------|
B|--10-10-10---------------------------------------------------------------|
G|-----------9999999999999-------------------------------------------------|
D|--7--7--7----------------------------------------------------------------|
A|-----------7777777777777-------------------------------------------------|
E|-------------------------------------------------------------------------|

Guitar 2 (1:04 – 1:17)
e|--------------------------------------------------------------------------|
B|---10-10-10----------13---------------------------------------------------|
G|------------9--9--9------(let ring)---------------------------------------|
D|---7--7--7-----------10---------------------------------------------------|
A|------------7--7--7-------------------------------------------------------|
E|--------------------------------------------------------------------------|

Guitar 1 (1:04 – 1:17)
e|-------------------------------------------------------------------------|
B|-------------------------------------------------------------------------|
G|-------------------------------------------------------------------------|
D|---5h7-7-7------7-7-7-7\-------------------------------------------------|
A|-----------7-7------5-5\ ------------------------------------------------|
E|-------------------------5-5-5-------------------------------------------|
[ Tab from: http://www.guitaretab.com/t/the-constantines/156161.html ]
Guitar 1 (1:17 – 1:35)
e|--------------------------------------------------------------------------|
B|-(10)---------------------------------------------------------------------|
G|--------------------------------------------------------------------------|
D|--7-----------------------------------------------------------------------|
A|--7-(let ring)------------------------------------------------------------|
E|--5-----------------------------------------------------------------------|

After this play Guitar 1 of 1:04 – 1:17 and guitar 2 of 0:51 – 1:04 together
Then Guitar 1 of 1:04 – 1:17 and guitar 2 of 1:04 – 1:17 together again


Guitar 2 (2:02 – 2:08)
e|-------------------------------------------------------------------------|
B|-------------------------------------------------------------------------|
G|-------------------------------------------------------------------------|
D|--7-----7-—5\3-----------------------------------------------------------|
A|--7-----7-—5\1-----------------------------------------------------------|
E|--5-----5-—3\1-----------------------------------------------------------|


Guitar 1 (2:02 – 2:08)
e|--------------------------------------------------------------------------|
B|--------------------------------------------------------------------------|
G|--------------------------------------------------------------------------|
D|--7-----------------------------------------------------------------------|
A|--7-lots of times---------------------------------------------------------|
E|--------------------------------------------------------------------------|

Music slows down

Guitar 1 (2:08 – 3:42)
e|--------------------------------------------------------------------------|
B|--------------------------------------------------------------------------|
G|----7h9-------------------------------------------------------------------|
D|--7-----------------------------------------------------------------------|
A|--------------------------------------------------------------------------|
E|--------------------------------------------------------------------------|

Guitar 2 (2:17 – 3:42)
e|--------------------------------------------------------------------------|
B|--------------------------------------------------------------------------|
G|-----12-9-----9-7---------------------------------------------------------|
D|---7-------7--------------------------------------------------------------|
A|--------------------------------------------------------------------------|
E|--------------------------------------------------------------------------|

Guitar 3 (3:18 – 3:38)
e|--------------------------------------------------------------------------|
B|--------------------------------------------------------------------------|
G|---7\---7-----------------------------------------------------------------|
D|---7\---7-(Listen to song for rhythm)-------------------------------------|
A|--------------------------------------------------------------------------|
E|--------------------------------------------------------------------------|

Guitar 1 (3:42 – 3:59)
e|--------------------------------------------------------------------------|
B|--------------------------------------------------------------------------|
G---------------------------------------------------------------------------|
D|----7---------------------------------------------------------------------|
A|----7—lots of times-------------------------------------------------------|
E|----5---------------------------------------------------------------------|

Guitar 2 (3:42 – 3:59)
e|--------------------------------------------------------------------------|
B|--------------------------------------------------------------------------|
G|---5--7---5h7p5-----------------------------------------------------------|
D|----------------7---------------------------------------------------------|
A|--------------------------------------------------------------------------|
E|--------------------------------------------------------------------------|

Guitar 1 (3:59 till end)
e|--------------------------------------------------------------------------|
B|--------------------------------------------------------------------------|
G|--------------------------------------------------------------------------|
D|--7—lots of times---------------------------------------------------------|
A|--7-----------------------------------------------------------------------|
E|--------------------------------------------------------------------------|


Guitar 2 (4:05 – 4:06)
e|--------------------------------------------------------------------------|
B|--------------------------------------------------------------------------|
G|--------------------------------------------------------------------------|
D|---7---5\3----------------------------------------------------------------|
A|---7---5\1----------------------------------------------------------------|
E|---5---3\1----------------------------------------------------------------|


| /  slide up
| \  slide down
| h  hammer-on
| p  pull-off
| ~  vibrato
| +  harmonic
| x  Mute note
===============================================================================
Related for Arizona tab
Advertisement will be closed in 10 seconds