Song name
# A B C D E F G H I J K L M N O P Q R S T U V W X Y Z

The Coronas - Make A Change tab

-------------------------------------------------------------------------------
			     Make a Change - The Coronas
-------------------------------------------------------------------------------
Tabbed by:Gareth Quinn Redmond
Email:garethqr@hotmail.com

Tuning:EADGBE
Pretty easy song not 100% sure on the solo cause there some little licks that i just 
seem to make out but the solo is most likely 80% right

Chords
	    Bm       F#7        E7        G        Bm/A
    e---2         2         0         3         0-|
    B---3         2         0         3         2-|
    G---4         3         1         0         4-|
    D---4         2         0         0         4-|
    A---2         4         2         2         0-|
    E---x         2         0         3-----------|         x


Intro (slow):
Bm F#7 G E7
Bm F#7 G E7
G F#7 Bm Bm/A
G F#7 Bm Bm/A
G F#7 Bm Bm/A
G F#7

Intro (fast):
"To make a change!"
Bm F#7 G E7
Bm F#7 G E7

Verse:
Bm F#7 G E7
Bm F#7 G E7
Bm F#7 G E7
Bm F#7 G E7

Chorus:
G F#7 Bm Bm/A
G F#7 Bm Bm/A
G F#7 Bm Bm/A
G F#7

Intro (fast)
Verse Chorus Intro (fast) x4 with "bah bada bah's" to outro

Lead Guitar

Riff 1 (Intro)
e|--------------------------------------------------------------------------|
B|--------------------------------------------------------------------------|
G|----------------------------------------11----9---------------------------|
D|--9---12---12p11---12--11--9---11---12-------------12---11---9--9--9--9---|
A|--------------------------------------------------------------------------|
E|--------------------------------------------------------------------------|

e|--------------------------------------------------------------------------|
B|--------------------------------------------------------------------------|
G|--------------------------------------------------------------------------|
D|--9/11---9---11---12--9--9---9---7----------------------------------------|
A|-------------------------------------9----7-------------------------------|
E|------------------------------------------------10----7-------------------|


Outro Solo   3:12
e|-------7------------------------------------------------------------------|
B|--5/7------10---7---------------------------------------------------------|
G|---------------------9---7-----7-----------9b10rb9---7--------------------|
D|----------------------------------9p7h9-----------------------9-----------|
A|--------------------------------------------------------------------------|
E|--------------------------------------------------------------------------|

e|--------------------------------------------------------7--7--7--7-7------|
B|--------------------------------------------------------7--7--7--7-7------|
G|------------------7---9b11rb9---9p7---------------------7--7--7--7-7------|
D|---7h9--7h9--7h9---------------------9------------7h9---7--7--7--7-7------|
A|--------------------------------------------5/9---------------------------|
E|--------------------------------------------------------------------------|

e|---------7---10-7-10/12--10--9h10p9---7--10h12p10--12b--12b-10--7--------7|
B|--7h10--------------------------------------------------------------10----|
G|--------------------------------------------------------------------------|
D|--------------------------------------------------------------------------|
A|--------------------------------------------------------------------------|
E|--------------------------------------------------------------------------|

e|--7-------7-\-------------------------------------------------------------|
B|--10b12---7-\-------------------------------7*----------------------------|
G|----------7-\----------9b10rb9--7---------------9--7----------------------|
D|----------7-\-----------------------9p7h9---------------9p7h9-------------|
A|--------------------------------------------------------------------------|
E|--------------------------------------------------------------------------|


| /  slide up
| \  slide down
| h  hammer-on
| p  pull-off
| ~  vibrato
| +  harmonic
| x  Mute note
===============================================================================
Tap to rate this tab
 
# A B C D E F G H I J K L M N O P Q R S T U V W X Y Z