Song name
# A B C D E F G H I J K L M N O P Q R S T U V W X Y Z

The Cribs - What About Me tab

Listen to the song for the right timing because I'm not sure of the number of hits.

standard tuning 

Intro:
e|------------------|
B|------------------|
G|-6----------------|
D|-7--------0-------|
A|-7-(x8)--10-(x5)--|
E|-5----------------|

e|-----------------|------------------------|
B|-----------------|---------7-7-55-5-5-5-5-|
G|-6---------------|-6-------6-6-66-6-6-6-6-|
D|-7-------6-------|-7-------7-7-77-7-7-7-7-| x2
A|-7-(x8)--7-(x6)--|-7-(x8)-----------------|
E|-5-------5-------|-5----------------------|

Verse:

"I have always had..."
e|-----------------|------------------------|
B|-----------------|---------7-7-55-5-5-5-5-|
G|-6---------------|-6-------6-6-66-6-6-6-6-|
D|-7-------6-------|-7-------7-7-77-7-7-7-7-|
A|-7-(x8)--7-(x6)--|-7-(x8)-----------------|
E|-5-------5-------|-5----------------------|
                                                x2
"But its alright.."  "I really don't mind..."    
e|-----------------|------------------------|
B|-7---------------|-7-------7-7-55-5-5-5-5-|
G|-6---------------|-5-------6-6-66-6-6-6-6-|
D|-7-(x5)--6-------|-7-(x5)--7-7-77-7-7-7-7-|
A|-5-------7-(x6)--|-5----------------------|
E|---------5-------|------------------------|

Chorus:
"Out of sight..."
e|--------------------|-------------------|
B|--------------------|----------14-------|
G|-6--------10--------|-11-------14-(x6)--|
D|-7--------11--------|-12----------------| x2
A|-7-(x16)--11-(x16)--|-12-(x7)-----------|
E|-5------- 9---------|-10----------------|

Bridge:

e|--------------------|    |------------------|
B|---------7-14-------|    |---------7-14-----|
G|-6-------6-14-(x6)--|    |-6-------6-13-(x6)|
D|-7-------7----------| x3 |-7-------7-14-----|
A|-7-(x4)--5----------|    |-7-(x4)--5--------|
E|-5------------------|    |-5----------------|


Intro
Verse
Chorus
Bridge
Verse
Chorus
Solo(maybe later)
Chorus
end on A chord
Tap to rate this tab
# A B C D E F G H I J K L M N O P Q R S T U V W X Y Z