Song name
# A B C D E F G H I J K L M N O P Q R S T U V W X Y Z

The Daylight Curse - The Show Must Go On tab

The Daylight Curse
The Show Must Go On Intro
This is my first tab so cut me some slack. Its about the first minute of the song 
to the actual song to get the timing of the parts. Cheers

Any problems hit me up at wolfmother_13@hotmail.com

Drop B
Guitar 1
C* :---2-1h2p1-----2-1h2p1-----2-1h2p1---4-2-1h2p1----|
G* :-4---------2-4---------2-4---------2-----------2--|
E  :--------------------------------------------------| X4
B  :--------------------------------------------------|
F* :--------------------------------------------------|
B  :--------------------------------------------------|
Guitar 2
C* :--------------------------------------------------|
G* :--------------------------------------------------|
E  :--------------------------------------------------|
B  :--------------------------------------------------|
F* :0-Let ring----------------------------------------|
B  :0-------------------------------------------------|

Guitar 2
C* :--------------------------------------------------|
G* :--------------------------------------------------|
E  :--------------------------------------------------|
B  :--------------------------------------------------|
F* :1-Let ring----------------------------------------|
B  :1-------------------------------------------------|
Guitar 2
C* :--------------------------------------------------|
G* :--------------------------------------------------|
E  :--------------------------------------------------|
B  :--------------------------------------------------|
F* :3-Let ring----------------------------------------|
B  :3-------------------------PICKSLIDE---------------|

Guitar 1
C* :---4-3h4p3-----4-3h4p3-----4-3h3p4---6-4-3h4p3----|
G* :-6---------4-6---------4-6---------4-----------4--|
E  :--------------------------------------------------| X8
B  :--------------------------------------------------|
F* :--------------------------------------------------|
B  :--------------------------------------------------|
Guitar 2
C* :--------------------------------------------------|
G* :--------------------------------------------------|
E  :--------------------------------------------------|
B  :--------------------------------------------------|
F* :0-XXXXX0-XXXXX0-XXXXX0-XXXXX0---------------------|
B  :0-XXXXX0-XXXXX0-XXXXX0-XXXXX0---------------------|
Guitar 2
C* :--------------------------------------------------|
G* :--------------------------------------------------|
E  :--------------------------------------------------|
B  :--------------------------------------------------|
F* :4-XXXXX4-XXXXX4-XXXXX4-XXXXX4---------------------|
B  :4-XXXXX4-XXXXX4-XXXXX4-XXXXX4---------------------|
Tap to rate this tab
# A B C D E F G H I J K L M N O P Q R S T U V W X Y Z