Song name
# A B C D E F G H I J K L M N O P Q R S T U V W X Y Z

The Dead Weather - Blue Blood Blues tab

The Dead Weather - Blue Blood Blues

Tabbed By: Mark DiFranco

Tuning - E A D G B e


Main Riff:
e|--------------------------------------------------------------------| 
B|--------------------------------------------------------------------| 
G|--------------------------------------------------------------------| 
D|--------------------------------------------------------------------|
A|--------------------------------------------------------------------| 
E|---0--0---2-2-2-2b2.5r2--0-0---2-2-2-2b2.5r2--0-0---2-2-2-2b2.5r2---|

e|--------------------------------------------------------------------| 
B|--------------------------------------------------------------------| 
G|--------------------------------------------------------------------| 
D|--------------------------------------------------------------------|
A|-------------5h7-9--7p5-7p5-----------------------------------------| 
E|---0--0--5h7----------------7p5-------------------------------------|


Alternate Main Riff:
e|--------0--------------------0--------------------0-----------------| 
B|--------0--------------------0--------------------0-----------------| 
G|--------------------------------------------------------------------| 
D|--------------------------------------------------------------------|
A|--------------------------------------------------------------------| 
E|---0--0---2-2-2-2b2.5r2--0-0---2-2-2-2b2.5r2--0-0---2-2-2-2b2.5r2---|


Other Alternate Main Riff:
e|--------0----------------------------0------------------------------| 
B|--------0----------------------------0------------------------------| 
G|--------------------------------------------------------------------| 
D|-----------7b7.5-7.5-7.5-7.5r7----------7b7.5-7.5-7.5-7.5r7---------|
A|--------------------------------------------------------------------| 
E|---0--0-------------------------0--0--------------------------------|

e|--------0-----------------------------------------------------------| 
B|--------0-----------------------------------------------------------| 
G|--------------------------------------------------------------------| 
D|-----------7b7.5-7.5-7.5-7.5r7--------------------------------------|
A|------------------------------------------5h7-9--7p5-7p5------------| 
E|---0--0-------------------------0--0--5h7----------------7p5--------|
Tap to rate this tab
# A B C D E F G H I J K L M N O P Q R S T U V W X Y Z