Song name
# A B C D E F G H I J K L M N O P Q R S T U V W X Y Z

The Dears - Dream Job tab

-----------------------------------------------------------------------------
			     Dream Job - Dears
-----------------------------------------------------------------------------
Tabbed by: dave
Email: thischarmingman13@gmail.com

Tuning:std
e|----------------------------------------------------------------------------|
B|----------------------------------------------------------------------------|
G|----5--5--5--5---5--5--5--5---5--5--5--5----5--5--5--5----------------------|
D|--/7--7--7--7---8--8--8--8---5--5--5--5--h-7--7--7--7-----------------------|
A|----------------------------------------------------------------------------|
E|----------------------------------------------------------------------------|
    This chord is peppered in there, slightly distorted.
e|----0----------------------------------------------------------------------|
B|----1----------------------------------------------------------------------|
G|----2----------------------------------------------------------------------|
D|----3----------------------------------------------------------------------|
A|---------------------------------------------------------------------------|
E|---------------------------------------------------------------------------|

| /  slide up
| \  slide down
| h  hammer-on
| p  pull-off
| ~  vibrato
| +  harmonic
| x  Mute note
===============================================================================
Tap to rate this tab
# A B C D E F G H I J K L M N O P Q R S T U V W X Y Z