Song name
# A B C D E F G H I J K L M N O P Q R S T U V W X Y Z

The Death Letters - Schizophrenic tab

Cool Song by The Death Letters: Schizophrenic
Official Website: http://www.deathletters.net/
Intro 1:
Slide riff

Intro 2:
D|----------------------------------|
B|----------------------------------|
G|--0-0-3-0-5-0-5-0-5-7-3-0---| x 5-|
D|----------------------------------|
G|----------------------------------|
D|----------------------------------|
. . . . . . . . . . . . palm mute
D|--------------------------------|
B|--------------------------------|
G|--0-0-3-5-0-3-3-3-2-0-----------|
D|--------------------------------|
G|--------------------------------|
D|--------------------------------|

D|--------------------------------|
B|--------------------------------|
G|--------------------------------|
D|--------------------------------|
G|--0-0-3-0-5-0-5-0-5-7-3-0-------| x 4 Play with slide
D|--------------------------------|

D|--------------------------------|
B|--------------------------------|
G|--------------------------------|
D|--------------------------------|
G|--0-0-3-5-0-3-3-3-2-0-----------|
D|--------------------------------|

Verse:
D|--------------------------------|
B|--------------------------------|
G|--0-0-3-0-5-0-5-0-5-7-3-0-------|
D|--------------------------------|
G|--------------------------------|
D|--------------------------------|
. . . . . . . . . . . . palm mute
D|--------------------------------|
B|--------------------------------|
G|--0-0-3-5-0---------------------|
D|--------------------------------|
G|------------3-3-3-2-0-----------|
D|--------------------------------|
. . . . . . . . . . palm mute

These are the most important parts. i couldn't figure out
the slide riff intro, but if anyone knows it i'd love to hear
Tap to rate this tab
 
# A B C D E F G H I J K L M N O P Q R S T U V W X Y Z