Song name
# A B C D E F G H I J K L M N O P Q R S T U V W X Y Z

The Devil Makes Three - Old No 7 tab

Artist:  Devil Makes Three
Song:  Old No 7
Tabbed by Xris

Simple 4 chord progression

Capo 2nd Fret

you're gonna have to figure out the timing on your own. just listen to the song, it's 
easy

here are the chords (based on 2nd fret capo):

Am  E  D* E

-------8-----|
-1-----7-----|
-2--1--7--1--|
-2--2--7--2--|
----2--5--2--|
-------------|

Chords (without capo)

Bm  F#   E*  F#

-2---2---10--2--|
-3---2---9---2--|
-4---3---9---3--|
-4---4---9---4--|
-2---4---7---4--|
-x---2-------2--|

Outtro:
----------------------------------------|
-5-5-5-5-5-5-3-3-3-2-0-0----------------|
----------------------------------------|  X3
----------------------------------------|
----------------------------------------|
----------------------------------------|

-7-7-7-7-7-7-6-6-6-10-10-10-|
----------------------------|
----------------------------|
----------------------------|
----------------------------|
----------------------------|
Tap to rate this tab
# A B C D E F G H I J K L M N O P Q R S T U V W X Y Z