Song name
# A B C D E F G H I J K L M N O P Q R S T U V W X Y Z

The Devil Makes Three - Aces And Twos tab

The Devil Makes Three are amazing I saw this song live and it blew me away. Pete
is one of the most underrated singer songwriters. If you havenít seen them live you need
to
Anyways this is off there new cd Do Wrong Right. Pete Bernhard tunes his guitar to an
D. So he can play major chords just by baring. The tuning is as follows Drop your G
to an F# Drop your B String to an A and then Drop your high E string to a D. He uses a
of slide in this song so use it whenever you feel appropriate. Have fun I hope this helps
a rocking song to play and solo off of. I am sure there are mistakes on this because 
is my first tab so go easy on me.

The are the chords he uses I might be wrong on the names of the chords but for sake of
Iíll name them.


E|-------0-------------------------------------------------------------------|
A|-------0-------------------------------------------------------------------|
D|-------0----------0------------5-------------0----------------12-----------|
F#|------0----------7------------5-------------3----------------12-----------|
A|-------0----------7------------5-------------3----------------12-----------|
D|-------0----------7------------5-------------3----------------12-----------|

	 D	    E	         D2            C                A
 Intro
E|-----------------------------------------------------------------------|
A|33-------------33--------------33-----------------------------33-------|
D|--00--33--0---------00--33--0-------00--33--0----5--0---3--0--------0--|
F#|----------------------------------------------------------------------|X2
A|-----------------------------------------------------------------------|
D|-----------------------------------------------------------------------|


E|---------------------------------------------------------------------------|
A|--33-----------------33------------------------------------------5---------|
D|------00--33--0----------00--3--0---------/5-/5--3--0--5--3--0-------------|
F#|--------------------------------------------------------------------------|
A|---------------------------------------------------------------------------|
D|---------------------------------------------------------------------------|


E|---------------------------------------------------------------------------|
A|------------------------------------------------------/---12---------------|
D|--/7-7-7-7-7-5-5-5-5--3-0-3-0-3-0-5--3-0--------------/---12---------------|
F#|-----------------------------------------------------/---12---------------|
A|------------------------------------------------------/---12---------------|
D|------------------------------------------------------/---12---------------|

Play below at ďWhen I wake up I donít know what to doĒ
* I usually play the full chords instead of the bass note its up to you.

E|---------------------------------------------------------------------------|
A|-------------------------------/---12--------------------------------------|
D|----3-0-3-0-3-0-/5--3-0--------/---12--------------------------------------|
F#|------------------------------/---12--------------------------------------|
A|-------------------------------/---12--------------------------------------|
D|-------------------------------/---12--------------------------------------|


Verse

D
In my dreams I laugh and smoke
D
Everybody screams when I tell them jokes
D
But now I like to gamble but I sure never lose
D
I got a closet full of pin stripe three piece suits


E                         D2
I tell you know I pull Aces you pull twos


See above to what to play
Come on now When I wake up I donít know what to do

D
I battle demons in the dead of the night
D
I donít come home until the sun shines bright
D
Well now I walk with Jesus is he walking with me
D
Itís so hard to tell when everyone is one the same street

E                      D2
I tell you know I pull Aces he pulls twos

See above to what to play
Come one now When I wake up I donít know what to do

D
I drive Cadillacís a million mile long
D
Back can hear my radio on
D
Well now I woke and gave a spoonful to you
D
In  my dreams a spoonful sure wonít do

E                         D2
I tell you know I pull Aces  he does to

See above to what to play
Come on now When I wake up I donít know what to do

D
I battle demons in the dead of the night
D
I donít come home until the sun shines bright
D
I walk with Jesus is he walking with me
D
Itís so hard to tell when everyone is one the same street

E                         D2
I tell you know I pull Aces  he does to

See above to what to play
Come one now When I wake up I donít know what to do
Tap to rate this tab
 
# A B C D E F G H I J K L M N O P Q R S T U V W X Y Z