Song name
# A B C D E F G H I J K L M N O P Q R S T U V W X Y Z

The Devil Makes Three - Graveyard tab

The Devil Makes Three - "Graveyard"
Should be at least 90% accurate. If anyone cares to tab the bridge, that would be awesome.

Enjoy,
GK



Left Hand Fingering Below Tricky Part: Index = 1 Pinkie = 4


   I wanna tell you a story          Ain't got no characters in it but me 
E |----------------|----------------|--1-1-1---1-1---|--3-3-3---0---3-|
B |--0-0---0-0---0-|--0-0---0-0---0-|--3-3-3---3-3---|--0-0-0---0---3-|
G |--5-5---5-5---5-|--5-5---5-5---5-|--2-2-2---2-2---|--0-0-0---0---0-|
D |--2-2---2-2---2-|--2-2---2-2---2-|0-----0-----0---|----------------|
A |------3---------|------3---------|--------0-----0-|----------------|
E |5-------0---3---|5-------0---3---|----------------|3-----3-0---3---|
   3 0 0 2     2
     4 4
     1 1


   I wanna sing you a sad song       Most of it I don't expect you to believe
E |----------------|----------------|--1-1-1---1-1---|--3-3-3---0---3-|
B |--0-0---0-0---0-|--0-0---0-0---0-|--3-3-3---3-3---|--0-0-0---0---3-|
G |--5-5---5-5---5-|--5-5---5-5---5-|--2-2-2---2-2---|--0-0-0---0---0-|
D |--2-2---2-2---2-|--2-2---2-2---2-|0-----0-----0---|----------------|
A |------3---------|------3---------|--------0-----0-|----------------|
E |5-------0---3---|5-------0---3---|----------------|3-----3-0---3---|


   Starts off just some whiskey and wine Some miles of travelin' some real good times
E |----------------|----------------|--1-1-1---1-1---|--3-3-3---0---3-|
B |--0-0---0-0---0-|--0-0---0-0---0-|--3-3-3---3-3---|--0-0-0---0---3-|
G |--5-5---5-5---5-|--5-5---5-5---5-|--2-2-2---2-2---|--0-0-0---0---0-|
D |--2-2---2-2---2-|--2-2---2-2---2-|0-----0-----0---|----------------|
A |------3---------|------3---------|--------0-----0-|----------------|
E |5-------0---3---|5-------0---3---|----------------|3-----3-0---3---|


   But it ends down a dark Corridor   Where there ain't no windows and there ain't no doors 
E |----------------|----------------|--1-1-1---1-1---|--3-3-3---0---3-|
B |--0-0---0-0---0-|--0-0---0-0---0-|--3-3-3---3-3---|--0-0-0---0---3-|
G |--5-5---5-5---5-|--5-5---5-5---5-|--2-2-2---2-2---|--0-0-0---0---0-|
D |--2-2---2-2---2-|--2-2---2-2---2-|0-----0-----0---|----------------|
A |------3---------|------3---------|--------0-----0-|----------------|
E |5-------0---3---|5-------0---3---|----------------|3-----3-0---3---|


Well that's me, just a drinkin' on this bottle and a-driftin' off to sea, 
E |----------------|----------------|--1-1-1---1-1---|--3-3-3---0---3-|
B |--0-0---0-0---0-|--0-0---0-0---0-|--3-3-3---3-3---|--0-0-0---0---3-|
G |--5-5---5-5---5-|--5-5---5-5---5-|--2-2-2---2-2---|--0-0-0---0---0-|
D |--2-2---2-2---2-|--2-2---2-2---2-|0-----0-----0---|----------------|
A |------3---------|------3---------|--------0-----0-|----------------|
E |5-------0---3---|5-------0---3---|----------------|3-----3-0---3---|


Well that's me, just a sittin here starin' and a-shakin' like a leaf
E |----------------|----------------|--1-1-1---1-1---|--3-3-3---0---3-|
B |--0-0---0-0---0-|--0-0---0-0---0-|--3-3-3---3-3---|--0-0-0---0---3-|
G |--5-5---5-5---5-|--5-5---5-5---5-|--2-2-2---2-2---|--0-0-0---0---0-|
D |--2-2---2-2---2-|--2-2---2-2---2-|0-----0-----0---|----------------|
A |------3---------|------3---------|--------0-----0-|----------------|
E |5-------0---3---|5-------0---3---|----------------|3-----3-0---3---|


Well that's me, Just a-leanin' on my shovel in this graveyard of dreams
E |----------------|----------------|---------------------|--3-3-3---0---3-|
B |--0-0---0-0---0-|--0-0---0-0---0-|---0--0--0----0------|--0-0-0---0---3-|
G |--5-5---5-5---5-|--5-5---5-5---5-|---10-10-10---10-----|--0-0-0---0---0-|
D |--2-2---2-2---2-|--2-2---2-2---2-|---0--0--0----0-----0|----------------|
A |------3---------|------3---------|---------8--8----8---|----------------|
E |5-------0---3---|5-------0---3---|10-------------------|3-----3-0---3---|


Well that's me, just a-leanin' on my shovel in this graveyard of dreams

E |----------------|----------------|----------------------|----------------|
B |--0-0---0-0---0-|--0-0---0-0---0-|---0--0--0----0-----0-|----------------|
G |--5-5---5-5---5-|--5-5---5-5---5-|---10-10-10---10----0-|----------------|
D |--2-2---2-2---2-|--2-2---2-2---2-|---0--0--0----0-----0-|----------------|
A |------3---------|------3---------|---------8--8---------|----------------|
E |5-------0---3---|5-------0---3---|10---------------10---|12--------------|
Tap to rate this tab
 
# A B C D E F G H I J K L M N O P Q R S T U V W X Y Z