Song name
# A B C D E F G H I J K L M N O P Q R S T U V W X Y Z

The Devil Makes Three - Graveyard tab

  I think I've figured this song out for the most part.  This tab only pertains 
to one of the guitar parts, the other part played by Pete Bernhard seems to be 
the same chords but they're played in higher positions.  There is also an 
interlude part during which one of the guitars plays a melody line that I haven't 
figured out.  This is just how I play it solo on the guitar.  If anyone has any 
improvements or additions just comment or send me an email and we can go from 
there because I could be off in some places as I just tabbed by ear and from 
watching live videos. 
Enjoy!

P.S. Sounds great with a harmonica during the interlude/outro

Graveyard
by The Devil Makes Three
The Devil Makes Three (2002)

tabbed by jlat
jlat@live(dot)ca

4/4 Time
Q= 128

(0)= ghost note/optional

RIGHT HAND NOTATION
r= ring finger
m= middle finger
i= index finger
t= thumb

INTRO/INTERLUDE/OUTRO

    Am			Am	          Dm		     G	     Em
  E|---0-0-----0---0--|---0-0-0---0---0--|---3-3-3---3---3--|---3-3-3---0-0-0--|
  B|---1-1-----1---1--|---1-1-1---1---1--|---1-1-1---1---1--|---3-3-3---0-0-0--|
  G|---2-2-----2---2--|---2-2-2---2---2--|---2-2-2---2---2--|---0-0-0---0-0-0--|
  D|---2-2----(2)-(2)-|---2-2----(2)-(2)-|-0-----0----------|-----------2---2--|
  A|-0-----0----------|-0-----0----------|---------0---3----|-------------2----|
  E|---------0---3----|---------0---3----|------------------|-3-----3-0--------|
     1 + 2 + 3 + 4 +    1 + 2 + 3 + 4 +    1 + 2 + 3 + 4 +    1 + 2 + 3 + 4 + 
       
       r r     r   r      r r r   r   r      r r r   r   r      r r r   r r r
       m m     m   m      m m m   m   m      m m m   m   m      m m m   m m m
       i i     i   i      i i i   i   i      i i i   i   i      i i i   i i i 
     t t t t t(t)t(t)   t t t t t(t)t(t)   t     t t   t      t     t t t t t

VERSE/CHORUS

    Am			Am	          Dm	             G	     Em
  E|---0-------0---0--|---0-------0---0--|---3-------3---3--|---3-------0------|
  B|-----1-----1---1--|-----1-----1---1--|-----1-----1---1--|-----3-------0----|
  G|-------2---2---2--|-------2---2---2--|-------2---2---2--|-------0-------0--|
  D|--(2)-----(2)-(2)-|--(2)-----(2)-(2)-|-0--------(0)-(0)-|------------------|
  A|-0----------------|-0----------------|---------0---3----|----------(2)-----|
  E|---------0---3----|---------0---3----|------------------|-3-------0--------|
     1 + 2 + 3 + 4 +    1 + 2 + 3 + 4 +    1 + 2 + 3 + 4 +    1 + 2 + 3 + 4 +

       r       r   r      r       r   r      r       r   r      r       r 
         m     m   m        m     m   m        m     m   m        m       m
           i   i   i          i   i   i          i   i   i          i       i
     t(t)    t(t)t(t)   t(t)    t(t)t(t)   t       t(t)t(t)   t       t(t) 
Tap to rate this tab
 
# A B C D E F G H I J K L M N O P Q R S T U V W X Y Z