Guitaretab - guitar tabs
Song name
# A B C D E F G H I J K L M N O P Q R S T U V W X Y Z

The Devil Wears Prada - Gimme Half tab

Gimme half by The Devil Wears Prada
Drop B tuning-
(Standard - B tuning)
E   down to    - C#
B   down to    - G#
G   down to    - E
D   down to    - B
A   down to    - F#
E   down to    - B


Intro
Guitar 1 (G1)
|--------------------------------------------------------| x2
|--------------------------------------------------------|
|--------------------------------------------------------|
|--7h8p7-5-7---------------------7h8p7-5-7---------------|
|-------------5=--5-5/3-3/5-5--------------8=--8-8p7-7---|
|--------------------------------------------------------|

Guitar 2 (G2)
|---------------------------------------| x4
|---------------------------------------|
|---------------------------------------|
|-7--8--7--5--7--000---000-0-000-000----|
|-7--8--7--5--7--000---000-0-000-000----|
|-7--8--7--5--7--000---000-0-000-000----|
                 ...   ... . ... ...

G1 only
|---------------------x-/---------------|
|---------------------x-/--(pick slide)-|
|---------------------x-/---------------|
|--7h8p7-5-7----------x-/---------------|
|------------5======--------------------|
|---------------------------------------|

(G1)
|--------------------------------------------------------| x2
|--------------------------------------------------------|
|--------------------------------------------------------|
|--7h8p7-5-7---------------------7h8p7-5-7---------------|
|-------------5=--5-5/3-3/5-5--------------8=--8-8p7-7---|
|--------------------------------------------------------|

(G2)
|---------------------------------------| x4
|---------------------------------------|
|---------------------------------------|
|-7--8--7--5--7--000---000-0-000-000----|
|-7--8--7--5--7--000---000-0-000-000----|
|-7--8--7--5--7--000---000-0-000-000----|
                 ...   ... . ... ...

G1
|-----------------------------------------------| (x2)
|-----------------------------------------------|
|-14-------12-------14-------15-------17--------|
|--x-(x6)---x-(x2)---x-(x2)---x-(x8)---x-(x8)---|
|-12-------10-------12-------13-------15--------|
|-----------------------------------------------|

G2
|-----------------------------------------------| (x2)
|-----------------------------------------------|
|-----------------------------------------------|
|-7-------5-------7-------8-------10------------|
|-7-(x6)--5-(x2)--7-(x2)--8-(x8)--10-(x8)-------|
|-7-------5-------7-------8-------10------------|


G1
|-----------------------------------------------------------------| x2
|-----------------------------------------------------------------|
|-------14-14--------15-15-15-15--------17-17--------19-19-19-19--|
|--------x--x---------x--x--x--x---------x--x---------x--x--x--x--|
|-0000--12-12--0000--13-13-13-13--0000--15-15--0000--17-17-17-17--|
|-0000---------0000---------------0000---------0000---------------|
  ....         ....               ....         ....

G2
|-----------------------------------------------------------| x2
|-----------------------------------------------------------|
|-----------------------------------------------------------|
|-0000--7-7---0000--8-8-8-8--0000--7-7---0000--10-10-10-10--|
|-0000--7-7---0000--8-8-8-8--0000--7-7---0000--10-10-10-10--|
|-0000--7-7---0000--8-8-8-8--0000--7-7---0000--10-10-10-10--|
  ....        ....           ....        ....

both G's
|----------------|
|----------------|
|----------------|
|--7h8p7-5-7-----|
|------------5===|
|----------------|

G1                                   tp tp
|-------------------------------------------------|
|-------------------------------------------------|
|-------------------------------------------------|
|-------------------------------------------------|
|--5-000000000000--8--7--5--3--3h5p3--1--3--8-7~--|
|----000000000000---------------------------------|
     ............                     .  .

G2                                      tp tp
|--------------------------------------------------|
|--------------------------------------------------|
|--------------------------------------------------|
|--------------------------------------------------|
|-----000000000000---8--7--5--3--3h5p3--3--5--8-7=-|
|--0--000000000000---8--7--5--3--3h5p3--3--5--8-7=-|
      ............                      .  .

G1 & 2
    more than likely happen a-gain
|----------------------------------------| x2
|----------------------------------------|
|----------------------------------------|
|---0=--------0=-----3=-------5=----8-7--|
|---0=--------0=-----3=-------5=----8-7--|
|---0=--------0=-----3=-------5=----8-7--|

sick breakdown
G1&2
|---------------------------------------------------------------|
|---------------------------------------------------------------|
|---------------------------------------------------------------|
|--0---------------------------------------------------8---7-5--|
|--0-000-0-000-------0-000-0-000-000--000-000-000-000--8---7-5--|
|--0-000-0-000-------0-000-0-000-000--000-000-000-000--8---7-5--|
     ... . ...       . ... . ... ...  ... ... ... ...

|----------------------------------------------------------------|
|----------------------------------------------------------------|
|----------------------------------------------------------------|
|--0---------------------------------------------------8---7-10--|
|--0-000-0-000-------0-000-0-000-000--000-000-000-000--8---7-10--|
|--0-000-0-000-------0-000-0-000-000--000-000-000-000--8---7-10--|
     ... . ...       . ... . ... ...  ... ... ... ...

Guitar 2 repeats above

G1 (make sure to emphasize the slides)
|-----------------------------------------------------------------| x2
|-----------------------------------------------------------------|
|-----------------------------------------------------------------|
|-----------------------------------------------------------------|
|--12h13p12-10-12-/-5--5-5/3-3/5-5--12h13p12-10-12-/-8--8-8/7-7---|
|-----------------------------------------------------------------|
[ Tab from: http://www.guitaretab.com/t/the-devil-wears-prada/196984.html ]
both G's
|----------------------------------------------------------------------|
|----------------------------------------------------------------------|
|----------------------------------------------------------------------|
|--8=-10=---0--------8--------------------12-----------10----------8---|
|--8=-10=---0---0--5---5--00000000--0--10----10---0--7----7---0--5---5-|
|--8=-10=---0---0---------00000000--0-------------0-----------0--------|
            .   .         ........  .             .           .
fill
|------------------------------------------|
|------------------------------------------|
|------------------------------------------|
|--------------------------------7h8p7p0---|
|---00000000--55555555---7h8p7p0-----------|
|---00000000--55555555---------------------|
    ........  ........

G1
|------------------------------------------------------------------| to fill
|------------------------------------------------------------------|
|------------------------------------------------------------------|
|-------15----------------------17------------15------------12-----|
|-0--12----12---00000000--0--14----14---0--12----12---0--10----10--|
|-0-------------00000000--0-------------0-------------0------------|
  .             ........  .             .             .

G2
|------------------------------------------------------------------| to fill
|------------------------------------------------------------------|
|------------------------------------------------------------------|
|-------12----------------------15------------12-----------10------|
|-0--10----10---00000000--0--12----12---0--10----10---0--7----7----|
|-0-------------00000000--0-------------0-------------0------------|
  .             ........  .             .             .


both G's (trill pick & pm whole thing)
|--------------------------------------|
|--------------------------------------|
|--------------------------------------|
|--------------------------------------|
|--12-----------15--13--12--10--8--7---|
|--------------------------------------|

other sick breakdown
G1                  tp------|                tp-------------|
|-----------------------------------------------------------|
|-----------------------------------------------------------|
|-----------------------------------------------------------|
|-0---------------------------------------------------------|
|-0--000-0-000-000-----12-10--0-000-0-000-000--12-10-13-12--|
|-0--000-0-000-000------------0-000-0-000-000---------------|
     ... . ... ...            . ... . ... ...
                                                 tp--------------|
-----------------------------------------------------------------| x2
-----------------------------------------------------------------|
-----------------------------------------------------------------|
-----------------------------------------------------------------|
-000-000--0-0--000-000----0-000-000-0-------000-0--12-10-7-8-----|
-000-000--0-0--000-000----0-000-000-0-------000-0----------------|
 ... ...  . .  ... ...    . ... ... .       ... .

G2                  tp------|                tp-------------|
|-----------------------------------------------------------|
|-----------------------------------------------------------|
|-----------------------------------------------------------|
|-0---------------------------------------------------------|
|-0--000-0-000-000------8--7--0-000-0-000-000--8--7--10--8--|
|-0--000-0-000-000------------0-000-0-000-000---------------|
     ... . ... ...            . ... . ... ...
                                                 tp--------------|
-----------------------------------------------------------------| x2
-----------------------------------------------------------------|
-----------------------------------------------------------------|
-----------------------------------------------------------------|
-000-000--0-0--000-000----0-000-000-0-------000-0--8--7--3--5----|
-000-000--0-0--000-000----0-000-000-0-------000-0----------------|
 ... ...  . .  ... ...    . ... ... .       ... .

both
|------------------------|
|------------------------|
|------------------------|
|--0-0=------------------|
|--0-0=---000000000000---|
|--0-0=---000000000000---|
          ............

G1
|--------------------------------------------------------| x2
|--------------------------------------------------------|
|--------------------------------------------------------|
|--7h8p7-5-7---------------------7h8p7-5-7---------------|
|-------------5=--5-5/3-3/5-5--------------8=--8-8p7-7---|
|--------------------------------------------------------|

G2
|---------------------------------------| x alot
|---------------------------------------|
|---------------------------------------|
|-7--8--7--5--7--000---000-0-000-000----|
|-7--8--7--5--7--000---000-0-000-000----|
|-7--8--7--5--7--000---000-0-000-000----|
                 ...   ... . ... ...

G1 octave part
|------------------------------------------------------------------|
|-10h11p10-8-10---------------------10h11p10-8-10------------------|
|----------------7=--7-7/5-5/7-7-------------------10=--10-10p9-9--|
|------------------------------------------------------------------|
|------------------------------------------------------------------|
|------------------------------------------------------------------|

G2 harmonic octave
|------------------------------------------------------------------------|
|-15h16p15-13-15--------------------------15h16p15-13-15-----------------|
|-----------------12=-12-12/10-10/12-12------------------15=-15-15p14-14-|
|------------------------------------------------------------------------|
|------------------------------------------------------------------------|
|------------------------------------------------------------------------|


Symbol guide

h- hammer on
p- pull off
x- dont play note or pick slide
=- let ring
.- palm mute
tp- trill pick
/- slide to note

well here you go!! i figured this out by ear but its about 99% right. please tell me 
u think! yeah----- :P
Related for Gimme Half tab
Gimme Half chords by The Devil Wears Prada