Song name
# A B C D E F G H I J K L M N O P Q R S T U V W X Y Z

The Devil Wears Prada - Salvation tab

The Best of the three instrumentals on Dear Love:

Key: / = slide up
     h = hammer on
     p = pull off
     ~ = Let Ring
Tuning: Drop D

Beginning:  (P.S.: I can't figure out the high part in the background, I'm guessing it's 
along with the 17th fret on high E string, which is the thinnest for new players.)

E |-8~----5h6p5---8~-----8-5--5h6p5----8~-----5h6p5--5h6p5--|
B |---------------------------------------------------------|
G |---------------------------------------------------------|  x6
D |---------------------------------------------------------|
A |---------------------------------------------------------|
D |---------------------------------------------------------|


E |-----HEAVY PART/BREAKDOWN-----------------------------|
B |------------------------------------------------------|
G |------------------------------------------------------|
D |0000------0000---00000----0000------------------------|   x10
A |0000------0000---00000----0000------------------------|
D |0000------0000---00000----0000------------------------|


E |-----OUTRO---W/-COLE-FROM-GWEN-STACY------------------|
B |------------------------------------------------------|
G |------------------------------------------------------|  x3
D |0~--0~---0~------2/12\2-------------------------------|
A |0~--0~---0~------2/12\2-------------------------------|
D |0~--0~---0~------2/12\2-------------------------------|

E |----------FINAL-NOTES----------------------------------|
B |-------------------------------------------------------|
G |0~---0~----0~------------------------------------------|
D |0~---0~----0~------------------------------------------|
A |0~---0~----0~-----0~-----------------------------------|
D |0~---0~----0~-----0~-----------------------------------|
Tap to rate this tab
 
# A B C D E F G H I J K L M N O P Q R S T U V W X Y Z