Song name
# A B C D E F G H I J K L M N O P Q R S T U V W X Y Z

The Dillinger Escape Plan - Mouth Of Ghosts tab

This is are the tabs for the song "Mouth of Ghosts" by The Dillinger Escape Plan off of 
their third studio album Ire works.
This tab was made entirely by ear, it's pretty easy and fun to play.

h = hammer on, p = pull off, / = slide

In the intro the song starts off with the piano:
e|---------------------------------------------------------------|
b|-5------4------5---5-7-9-7-5-4---2-1--2-4-5--555-4-2-1-2-4-0---|
g|---------------------------------------------------------------|
d|---------------------------------------------------------------|
a|---------------------------------------------------------------|
e|---------------------------------------------------------------|

e|----------------------------------|
b|-0--0-0-2-4-2-5----0-0-0--2-2-1-1-|
g|----------------------------------|
d|----------------------------------|
a|----------------------------------|
e|----------------------------------|

The guitar comes in a while later:
e|--------------------------------|
b|-5--------4-------5------4------|
g|-6--------5-------6------5------|
d|-7--------6-------7------6------|
a|--------------------------------|
e|--------------------------------|

Those chords go on throughout the song until some parts where it changes a little:
e|--------------------------------------------|
b|-7-7-7-6-6-6-5-5-5-4-4-4-2-2-2-4-4-4-4--2-4-|
g|-8-8-8-7-7-7-6-6-6-5-5-5-3-3-3-5-5-5-5--3-5-|
d|-9-9-9-8-8-8-7-7-7-6-6-6-4-4-4-6-6-6-6--4-6-|
a|--------------------------------------------|
e|--------------------------------------------|

Repeat that rhythm twice then go back the the chords.
Then comes the solo:
e|-14/16---18-19----------------------------------------------|
b|---------------16--18-19-17-16-14--16-17-15-14-12--14-15-11-|
g|------------------------------------------------------------|
d|------------------------------------------------------------|
a|------------------------------------------------------------|
e|------------------------------------------------------------|

Repeat the solo twice and in the second ending after "14-15-11" play:

e|---------------------------------|
b|-9p8h9p8h9p8h9p8h9p8h9p8h9p8h9---|
g|---------------------------------|
d|---------------------------------|
a|---------------------------------|
e|---------------------------------|

After the solo the song starts the get a little heavy:
e|-------------------------------------------------|
b|-------------------------------------------------|
g|-------------------------------------------------|
d|-4-4-4-4-4-4-4-4-4-4-4-4-2-2-2-2-2-2-2-2-2-2-2-2-|
a|-4-4-4-4-4-4-4-4-4-4-4-4-2-2-2-2-2-2-2-2-2-2-2-2-|
e|-2-2-2-2-2-2-2-2-2-2-2-2-0-0-0-0-0-0-0-0-0-0-0-0-|

e|-------------------------------------------------|x4
b|-------------------------------------------------|
g|-------------------------------------------------|
d|-4-4-4-6-6-6-7-7-7-9-9-9-4-4-4-6-6-6-7-7-7-9-9-9-|
a|-4-4-4-6-6-6-7-7-7-9-9-9-4-4-4-6-6-6-7-7-7-9-9-9-|
e|-2-2-2-4-4-4-5-5-5-7-7-7-2-2-2-4-4-4-5-5-5-7-7-7-|

e|-------------------------------------------------|
b|-------------------------------------------------|
g|-------------------------------------------------|
d|-4-4-4-4-4-4-4-4-4-4-4-4-2-2-2-2-2-2-2-2-2-2-2-2-|
a|-4-4-4-4-4-4-4-4-4-4-4-4-2-2-2-2-2-2-2-2-2-2-2-2-|
e|-2-2-2-2-2-2-2-2-2-2-2-2-0-0-0-0-0-0-0-0-0-0-0-0-|

e|-------------------------------------------|x2
b|-------------------------------------------|
g|-------------------------------------------|
d|-6-6-6-6--6-6-6-6--6-6-6-6--6-6-6-77777777-|
a|-6-6-6-6--6-6-6-6--6-6-6-6--6-6-6-77777777-|
e|-4-4-4-4--4-4-4-4--4-4-4-4--4-4-4-55555555-|

On the second time, both guitars split, one keeps doing the pattern while the other does:
e|-14-11-11-14-11-11-14-11-11-14-11-11-14-11-11-14-11-11-14-11-11-|x2
b|----------------------------------------------------------------|
g|----------------------------------------------------------------|
d|----------------------------------------------------------------|
a|----------------------------------------------------------------|
e|----------------------------------------------------------------|

At the end of the second time, instead of playing the 11, its a 12.
Tap to rate this tab
# A B C D E F G H I J K L M N O P Q R S T U V W X Y Z