Song name
# A B C D E F G H I J K L M N O P Q R S T U V W X Y Z

The Dodos - The Current tab

I've Submitted every guitar part to this song. Hopefully you should know where to play 
each of these sections :) The Dodos play this song with a
capo on the 2nd fret live, but you can still play each guitar part without a capo.





E|--------------------------------------------------------|
B|--11--11----------9--9--------7--7----------9--9--------|
G|--------------------------------------------------------|
D|----------11--11--------9--9--------11--11--------9--9--|   Guitar 1
A|--------------------------------------------------------|
E|--------------------------------------------------------|






E|--------------------------------------------------------------|
B|--12--12--11--11--9--9----------11--11----------9--9----------|  Guitar 2
G|------------------------11--11----------11--11--------11--11--|   (Harmony)
D|--------------------------------------------------------------|
A|--------------------------------------------------------------|
E|--------------------------------------------------------------|




E|--------------------------------------|
B|--------------------------------------|
G|--------------------------------------|
D|--4--------3--------6--------6--------|  Rhythm Guitar (Chords over Verses)
A|--4--------4--------7--------6--------|
E|--6--------4--------7--------7--------|




E|-----------------------------|
B|-----------------------------|
G|-----------------------------|
D|--3--------4--------3--------|   Chorus Chords
A|--4--------4--------4--------|
E|--2--------6--------4--------|


E|-------------------------------------|
B|-------------------------------------|
G|-------------------------------------|
D|-------------------------------------|  X4 Bass line (Plays after the break)
A|--4444444-2-------------------666-2--|
E|------------444444-6-22222222--------|



E|--------------------------------------|
B|--------------------------------------|
G|--------------------------------------|
D|--4--------3--------6--------6--------|   Outro Chords (Same as the Verses)
A|--4--------4--------7--------6--------|
E|--6--------4--------7--------7--------|



E|---------------------------------------------------|
B|--11h12--14--11------12--9------11--9------11------|
G|-----------------------------------------------11--|
D|-----------------11---------11---------11----------|
A|---------------------------------------------------|
E|---------------------------------------------------|

Lead Guitar In the Break (Guitar 2 Harmony plays over this also)
Tap to rate this tab
# A B C D E F G H I J K L M N O P Q R S T U V W X Y Z