Song name
# A B C D E F G H I J K L M N O P Q R S T U V W X Y Z

The Dodos - The Season tab

Just the cool bit at the end
I've never done a tab, but after finding there were no tabs for this i learnt it myself 
i thought i would share it, because it's sick
Capo on 4th fret

--x---x-x-x-x---x--x-x-x-x-x-----x---x-x-x-x---x--x--x-x-x-x-x--|
--8---8-8-7-7---5--5-4-5-7-5-----7---7-7-5-5---4--4--4-4-4-4-4--|
--4---4-4-4-4---4--4-4-4-4-4-----4---4-4-4-4---4--4--6-4-6-4-6--|
--4---4-4-4-4---4--4-4-4-4-4-----4---4-4-4-4---4--4--4-4-4-4-4--|
--x---x-x-x-x---x--x-x-x-x-x-----x---x-x-x-x---x--x--x-x-x-x-x--|
--7---7-7-7-7---7--7-7-7-7-7-----7---7-7-7-7---7--7--7-7-7-7-7--|

--------------------|
--------------------|
--4--4--4--4--4--4--|
--8--6--4--8--6--4--|
--6--6--6--6--6--6--|
--7--7--7--7--7--7--|


-------------------------------------------------------------------------|
-------------------------------------------------------------------------|
--4--4--4--4--4--4--4--4--4--4--4--4--4--4--4--4--4--4--4--4--4--4--4--4-|
--8--6--4--8--6--4--8--6--4--8--6--4--8--6--4--8--6--4--8--6--4--8--6--4-|
--6--6--6--6--6--6--6--6--6--6--6--6--6--6--6--6--6--6--6--6--6--6--6--6-|
--4--4--4--4--4--4--4--4--4--4--4--4--7--7--7--7--7--7--7--7--7--7--7--7-|
Tap to rate this tab
# A B C D E F G H I J K L M N O P Q R S T U V W X Y Z