Song name
# A B C D E F G H I J K L M N O P Q R S T U V W X Y Z

The Dodos - Jodi tab

The Dodos
Jodi
Visiter
DGDGBD
Tabbed By: Justin C Rodriguez


Its best to try and learn this song with a pair of good headphones so you can pick up 
subtle nuances, strum patterns, and sometimes hard to hear bass lines.

Note that this song is fingerpicked and Meric uses his thumb to pick the bass notes 
the entire song.

Because of how many variations of strum patters he uses, I'll leave it to you to figure 
the strumming in each section, where and when to play each section and how many times to 
each section.

|----------------------|
|10p0-------12p0-------|
|----------------------|
|-----10s12------12s10-|    Intro 1 *
|-----(0)--------(0)---|
|----------------------|

|---10----|
|------12-|
|---------|         Intro 2 *
|12-------|
|(0)------|
|---------|

|-------------------------------------|
|-------------------------------------|
|0---0-0-0-3------------10-------9----|
|5--5-5-5----5-3-0----8----8--10---10-|  Intro 3/ Verse
|0------------------------------------|
|5--------------------8-------10------|
 ^
picked constantly with thumb

Chorus
|------------------------------------------------------------------------|
|------------------------------------------------------------------------|
|----7---------0---------0--------3----3---5-5-5-3---------10-------9----|
|-9-----9---4-----4---5-----5---5---5-5-5---------5-3----8----8--10---10-|
|------------------------------------------------------------------------|
|-5---------0---------2---------5------------------------8-------10------|

Bridge
|---------------------------------------------|
|---------------------------------------------|
|-----------------------10--9--0--9--0--9--0--|
|3-333-2-0-0-5-555-8-5--12--12-12-12-12-12-12-|
|0-000-0-0-0-0-000-0-0--0---0--0--0--0--0--0--|
|0-000-0-0-0-0-000-0-0------------------------|

|-----------------------------------------------|
|-----------------------------------------------|
|-----------------------------------------------|
|-0-0-0-0-0-0-0-0-0-0-0-0-0-0-0-0-0-0-0-0-0-0---|
|-4-4-4-2-0-2-0-0-0-0-0-0-0-0-0-0-0-0-0-0-0-0---|
|-0-0-0-0-0-0-0-0-0-0-0-3-0-3-2-0-5-5-5-8-5-0---|

I can't figure out the part where he sings
"but you're still telling me what i want what i need"
so if you can figure that out or have any suggestions then please post in the comment 
or something and i'll put it in this tab and credit you.

outro
|-----------------------|
|10p0-------12p0--------|
|-----------------------|
|-----10s12------12s10--|
|-----(0)--------(0)----|
|-----------------------|

end chord
|-0-|
|-0-|
|-0-|
|-0-|
|---|
|---|
Tap to rate this tab
# A B C D E F G H I J K L M N O P Q R S T U V W X Y Z