Song name
# A B C D E F G H I J K L M N O P Q R S T U V W X Y Z

The Dodos - The Ocean tab

Song: The Ocean
Artist: The Dodos
Tuning: Standard

CAPO 2

There was no other tabs of this so I had to figure it out myself, so don't
 expect it to be 100% correct, please comment below if you find any errors and i will 
fix them.

All Tabs are according to the capo.

***TIMING IS NOT APPROXIMATE***
The whole time the guitar is playing this while it is playing the other
parts, i just didn't tab this along with the other ones so it is easier to read.
E|--------------------------------------|
B|--------------------------------------|
G|-----0-----0-----0-----0-----0-----0--|
D|--------------------------------------|
A|--------------------------------------|
E|--0-----0-----0-----0-----0-----0-----|

Intro Riff x7

E|--------------------------------|
B|--------------------------------|
G|--------------------------------|
D|--0--4--5--5--5--5--2--2--0--2--|
A|--0--5--7--7--6--6--3--3--0--2--|
E|-----------------------------0--|

E|--------------------------|
B|--------------------------|
G|--------------------------|
D|--0--4--2--2--2--5--5--5--|
A|--0--5--3--3--3--6--6--6--|
E|--------------------------|

(The next part I haven't figured out yet, so we'll skip to the "There's no need to run 
at all" part)

E|--------------------------------------------------------------------------|
B|--------------------------------------------------------------------------|
G|--------5-----5-----------5-----5-----------5-----5-----------5-----5-----|
D|-----5-----5-----5-----5-----5-----5-----5-----5-----5-----5-----5-----5--|
A|--6-----------------6-----------------6-----------------6-----------------|
E|--------------------------------------------------------------------------|

E|--------------------------------------------------------------------------|
B|--------------------------------------------------------------------------|
G|--------4-----4-----------4-----4-----------4-----4-----------4-----4-----|
D|-----4-----4-----4-----4-----4-----4-----4-----4-----4-----4-----4-----4--|
A|--5-----------------5-----------------5-----------------5-----------------|
E|--------------------------------------------------------------------------|

E|--------------------------------------------------------------------------|
B|--------------------------------------------------------------------------|
G|--------2-----2-----------2-----2-----------2-----2-----------2-----2-----|
D|-----2-----2-----2-----2-----2-----2-----2-----2-----2-----2-----2-----2--|
A|--3-----------------3-----------------3-----------------3-----------------|
E|--------------------------------------------------------------------------|

Repeat this a few times

Ending


E|-----------------------|
B|-----------------------|
G|--4--4--4--4--4--4--4--|
D|--5--5--5--5--5--5--5--|
A|--3--3--3--3--3--3--3--|
E|-----------------------|
(X4)


E|-----------------------------------------|
B|-----------------------------------------|
G|--------------------------------------4--|
D|--4--4--4--4--5--5--5--5--7--7--7--7--x--|
A|--5--5--5--5--5--5--5--5--5--5--5--5--5--|
E|-----------------------------------------|

REPEAT UNTIL END
Tap to rate this tab
 
# A B C D E F G H I J K L M N O P Q R S T U V W X Y Z