Song name
# A B C D E F G H I J K L M N O P Q R S T U V W X Y Z

The Dollyrots - Hysteria tab

.-------------------------------------------.
| Artist        : The Dollyrots             |
| Album         : Because I'm Awesome       |
| Track         : Hysteria                  |
|-------------------------------------------|
| Tabbed by     : Ricky Thomson             |
| Date          : Thu 18th May 2012         |
| Contact Email : punkalert@gmail.com       |
`-------------------------------------------'


Tuning: standard

PM = palm mute


Order
 - intro
 - verse
 - bridge
 - chorus
 - intro
 - verse
 - bridge
 - chorus
 - bridge two
 - solo
 - intro
-  bridge three
 - chorus
 - bridge two
 - solo
 - end



[intro]

e|------------------------------------|
B|------------------------------------|
G|-----------7-7----------------------|
D|--9-9------7-7-----5-5--------------|
A|--9-9------5-5-----5-5--------------|
E|--7-7--------------3-3--------------|



[verse] 

PM[  . . . . . . . . . . . . . . . .  ]
e||-----------------------------------||
B||-----------------------------------||
G||----------7-7-7-7------------------||
D||--9-9-9-9-7-7-7-7-7-7-7-7-5-5-5-5--||
A||--9-9-9-9-5-5-5-5-7-7-7-7-5-5-5-5--||
E||--7-7-7-7---------5-5-5-5-3-3-3-3--||



[bridge]

PM[                                       . . . . . . . . . . . . . . . .  ]
e||-----------------------------------||-----------------------------------|
B||-----------------------------------||-----------------------------------|
G||-----------7-7---------------------||-----------------------------------|
D||--9-9------7-7----5-5---5-5-5-5-5--||--4-4-4-4-4-4-4-4-6-6-6-6-7-7-7-7--|
A||--9-9------5-5----5-5---5-5-5-5-5--||--4-4-4-4-4-4-4-4-6-6-6-6-7-7-7-7--|
E||--7-7-------------3-3---0-3-0-3-3--||--2-2-2-2-2-2-2-2-4-4-4-4-5-5-5-5--|


 
[chorus]
 
e||-------------------------------------------||
B||-------------------------------------------||
G||--------------------11--11-11-12-12-12-12--||
D||--12--12-12-9-9-9-9-11--11-11-12-12-12-12--||
A||--12--12-12-9-9-9-9--9---9--9-10-10-10-10--||
E||--10--10-10-7-7-7-7------------------------||

e|---------------------------------------------------|
B|---------------------------------------------------|
G|--------------------------11-11-11-11-11-11-11-11--|
D|--12-12-12-12-12-12-12-12-11-11-11-11-11-11-11-11--|
A|--12-12-12-12-12-12-12-12--9--9--9--9--9--9--9--9--|
E|--10-10-10-10-10-10-10-10--------------------------|

e|---------------------------------------------------|
B|---------------------------------------------------|
G|--12-12-12-12-12-12-12-12-14-14-14-14-14-14-14-14--|
D|--12-12-12-12-12-12-12-12-14-14-14-14-14-14-14-14--|
A|--10-10-10-10-10-10-10-10-12-12-12-12-12-12-12-12--|
E|---------------------------------------------------|



[bridge two]

e||-------------------------------------------|
B||-------------------------------------------|
G||-------------------------------------------|
D||--12-12-12-12-12-12-12-12-9-9-9-9-9-9-9-9--|
A||--12-12-12-12-12-12-12-12-9-9-9-9-9-9-9-9--|
E||--10-10-10-10-10-10-10-10-7-7-7-7-7-7-7-7--|

e|---------------------------------------------------||
B|---------------------------------------------------||
G|--11-11-11-11-11-11-11-11-12-12-12-12-12-12-12-12--||
D|--11-11-11-11-11-11-11-11-12-12-12-12-12-12-12-12--||
A|---9--9--9--9--9--9--9--9-10-10-10-10-10-10-10-10--||
E|---------------------------------------------------||



[solo]

e||----------------------------------------||
B||--10-----10-----10-----10-----12--12----||
G||----11-11--11-11--11-11--11-11--11--11--||
D||----------------------------------------||
A||----------------------------------------||
E||----------------------------------------||

e|---------------------------------------------------|
B|---------------------------------------------------|
G|--11-11-11-11-11-11-11-11-12-12-12-12-12-12-12-12--|
D|--11-11-11-11-11-11-11-11-12-12-12-12-12-12-12-12--|
A|---9--9--9--9--9--9--9--9-10-10-10-10-10-10-10-10--|
E|---------------------------------------------------|



[bridge three]

PM[                                  . . . . . . . . . . . . . . . .  ]
 e|-------------------------------------------------------------------|
 B|-------------------------------------------------------------------|
 G|-------------------------------------------------------------------|
 D|----------------------------------5-5-5-5-5-5-5-5-7-7-7-7-7-7-7-7--|
 A|----------------------------------5-5-5-5-5-5-5-5-7-7-7-7-7-7-7-7--|
 E|----------------------------------3-3-3-3-3-3-3-3-5-5-5-5-5-5-5-5--|



[end]

e|----------------|
B|----------------|
G|----------------|
D|--9-------------|
A|--9-------------|
E|--7-------------|



Have fun! If i've made any mistakes drop me an email, cheers. :-)
Tap to rate this tab
 
# A B C D E F G H I J K L M N O P Q R S T U V W X Y Z