Song name
# A B C D E F G H I J K L M N O P Q R S T U V W X Y Z

The Eternal - The Dying Light tab

     The Dying Light - The Eternal http://www.the-eternal.com/

Tabbed by: alexa_4912
Email: alexa_4912@hotmail.com

Tuning: standard

Rhythm part (played as intro, plus throughout much of song)

e|---------------------------------------------------------------------------|
B|---8-6-8-----9-8-6-----8-6-8----9-8-6--------------------------------------|
G|---------------------------------------------------------------------------|
D|-----------3---------6--------6--------------------------------------------|
A|-3-------------------------------------------------------------------------|
E|---------------------------------------------------------------------------|

lead part (played over intro)

e|---------------------------------------------------------------------------|
B|---------------------------------------------------------------------------|
G|-12-10-8-7~-5h7-8-7-5-7~-12(13)-10-8-10-7-8-7-5-7~-7(8)~-------------------|
D|---------------------------------------------------------------------------|
A|---------------------------------------------------------------------------|
E|---------------------------------------------------------------------------|

then there are some chords (sorry I dont know them) 1.16 rhythm part comes back in 
by chords again

2.13
e|---------------------------------------------------------------------------|
B|---------------------------------------------------------------------------|
G|---------------------------------------------------------------------------|
D|-5-13-13-13-12-12-12-12-10-10-8-6-6-8/10-5--(x6)---------------------------|
A|---------------------------------------------------------------------------|
E|---------------------------------------------------------------------------|

e|---------------------------------------------------------------------------|
B|---------------------------------------------------------------------------|
G|---------------------------------------------------------------------------|
D|---------------------------------------------------------------------------|
A|-3-10-11-10-10-10-10\8-6-8-8h10-6---3-10-8-10-11h13-11-11-10-8-6-13-11-10--|
E|---------------------------------------------------------------------------| (x2)

e|-----------------------------------------------------------------------------|
B|-----------------------------------------------------------------------------|
G|--------------------------12p10-8-7-8-7-5------------------------------------|
D|-17\15-13-12-13p12-10--------------------------------------------------------|
A|-----------------------------------------------------------------------------|
E|-----------------------------------------------------------------------------|

a minute or so piano then ... (5.45)

e|---------------------------------------------------------------------------|
B|---------------------------------------------------------------------------|
G|-17-17-15-13-17-17-19-20-(x2)----------------------------------------------|
D|---------------------------------------------------------------------------|
A|---------------------------------------------------------------------------|
E|---------------------------------------------------------------------------|
Tap to rate this tab
# A B C D E F G H I J K L M N O P Q R S T U V W X Y Z