Song name
# A B C D E F G H I J K L M N O P Q R S T U V W X Y Z

The Fabulous Thunderbirds - Wrap It Up tab

The Fabulous Thunderbirds - Wrap It Up


Intro

                P/O                B

----------6-------------------------------------------|
----------6-------------------------------------------|
-------6-------8--6----------6--8-8-8--6--8-----------|
---\8-----------------8--8----------------------------|
------------------------------------------------------|
------------------------------------------------------|



Lick 1

-----------------------------|
------------x--x---6---------|
------------x--x---6---------|
-----------------------------|
--4-5-6----------------------|



Guitar Solo

  B      B       B              B B      B       B
-----6---------------------------------------6-----------|
-------------6------8--6-----9---------------------------|
--8------8-------8---------8----8-8--6-8-6-------6-------|
-------------------------------------------8--------8----|
---------------------------------------------------------|
---------------------------------------------------------|


Lick 2

Palm Mute------------------->

--------------------------------------------------------|
------------------------------------------x-x--6--------|
------------------------------------------x-x--6--------|
--------------------------------------------------------|
--------------------------------------------------------|
--3-3-2-2-1-1-2-2-3-3-2-2-1-1------4-5-6----------------|


Lick 3

Palm Mute--------------->

-----------------------------------------|
-----------------------------------------|
-----------------------------------------|
-----------------------------------------|
--6-6--6---------------------------------|
-----------3-3-4-4-4-5-6-----------------|


/    Slide
P/O  Pull Off
B    Bend
X    Mute

In standard tuning

Have fun
Tap to rate this tab
 
# A B C D E F G H I J K L M N O P Q R S T U V W X Y Z