Song name
# A B C D E F G H I J K L M N O P Q R S T U V W X Y Z

The Fall Of Troy - Ghostship Part 5 tab

Some of this is taken from the guitar pro version submitted by quinty so credit to him. 
did change what was wrong though, so here it is for the ppl who cant read it in GP!!

tabbed by:spencer heath
standard tuning

This is how i play it...2nd ever tab so comments are great.

Intro/Chorus
e:----------6p0------------8-8---10h12p0------0-0-0-0-----------------|
B:8-8880-7h8---8p0-8-8880-121212-------------4--4-4-------------------|
G:9-9990-----------9-9990-(b b)---------4-444--------4-444-7-5-4------|
D:9-999------------9-999-----------------------------------7-5-4------|
A:7-777------------7-777----------------3-333--------3-333-5-3-3------|
E:--------------------------------------------------------------x4----|

Verse
e:----5-2-0----------10-7-0----------------------------------|
B:3-333----5-3-0-8-888-----10-8-0----------------------------|
G:2-222----------7-777------------99----------44----44-------| Part
D:4-444----------9-999---------------xx1212xx----xx----xx----|  A
A:2-222----------7-777---------------xx----xx----xx----xx----|
E:--------------------------------88-xx-88-xx-33-xx-22-xx--x2|

e:------5-2-0-----------10-7-0---------harmonic on the last time|
B:3x333------5-3-0-8x888------10-8-0-------------------(5)------|
G:2x222------------7x777-------------99----------44----44-------|  Part
D:4x444------------9x999----------------xx1212xx----xx----xx----|    B
A:2x222------------7x777----------------xx----xx----xx----xx----|
E:-----------------------------------88-xx-88-xx-33-xx-22-xx--x2|

Chorus x2

Verse Part A, then while backup plays Part B Lead plays this...

e:8-7-----/12----7h8p7-5p3h5-/3-5~-7--8-7-8-10-8--7-|
B:---8-7-8---10~------------------------------------|
G:--------------------------------------continued---|
D:--------------------------------------------------|
A:--------------------------------------------------|
E:--------------------------------------------------|

e:12h14p12-8h108h108105h7-5p35p3-(5)-|
B:-----------------------------------|
G:-----------------------------------|
D:-----------------------------------|
A:-----------------------------------|
E:-----------------------------------|

Chorus x4...end last chorus on
e:--|
B:--|
G:9~|
D:9~|
A:7~|
E:--|

e:----------------------------------------------------|
B:--------end w/----------- end w/------------ end w/-|
G:7xx7------777--12xx12-----121212--14xx14-----141414-|
D:-xx--alot--------xx--alot-x-x-x-----xx--alot-x-x-x--|
A:7xx7------777--12xx12-----121212--14xx14-----141414-|
E:----------------------------------------------------|

e:-------------|------------------|------------------| 0~-|
B:-------------|------------------|---------------15-| 0~-|
G:7xx777-------| 12xx121212-------| 14xx141414----14-| 0~-|
D:-xx----------| --xx-------------| --xx-------------| 5~-|
A:7xx777-------| 12xx121212-------| 14xx141414----14-| 7~-|
E:------2/5--x4|-----------4/7--x2|-----------6/9----| ---|

e:12p10p0--------------------------------------------------------|
B:-------12p10p0----------------8-7-8-10-8--888-888-888----------|
G:--------------12-11-12-14-12--9-8-9-11-9--777-777-888-111111---|
D:------------------------------------------------------131313---|
A:---------------------------------------------------------------|
E:------------------------------------------------------------x4-|

e:----------------------------3p0----------------------|
B:-------------3--3--------------3p0-------------------|
G:-------------2--2-----------------2p0-2h4p2p0---4p0--|
D:----5--5--------------2--2-------------------2p0-----|
A:----5--5--------------2--2---------------------------|
E:3333-33--2222-22--0000-00-0--------------------------|
  .... ..  .... ..  .... .. .
e:-------------------3p2------------------|
B:-------------3--3-----3-----------------|
G:-------------2--2------4p2-4p2------7---|
D:----5--5----------------------5-4-5---5-|
A:----5--5--------------------------------|
E:3333-33--2222-22--0---------------------|
  .... ..  .... ..  .
e:-----------------3h5p3p0--------------------------3h5p3p0----|
B:---3---3---3--3p0-------3p0----3---3---3p0-----3p0-------3p0-|
G:2p0-2p0-2p0-----------------2p0-2p0-2p0---4p2p0--------------|
D:-------------------------------------------------------------|
A:-------------------------------------------------------------|
E:-------------------------------------------------------------|

e:12/10/12/10-12/10/12/10-12-10-12-10--12-10-12-10-|
B:10/8 /10/8--10/8 /10/8--12-10-12-10--12-10-12-10-|
G:-----------------------------------------------x3|
D:-------------------------------------------------|
A:-------------------------------------------------|
E:-------------------------------------------------|

e:12p101210-12p101210-12p101210-12p1012-|
B:12p101210-12p101210-12p101210-12p1012-|
G:--------------------------------------|
D:--------------------------------------|
A:--------------------------------------|
E:--------------------------------------|

e:0-8-7-0-8-7-0-8-7-0-8-10--12-0-8-7-0-8-7-0-8-7-0-8-10--12-10-8-7--|
B:-----8-----8-----8----------------8-----8-----8-----------------8-|
G:----------------------------------------------------------------x2|
D:------------------------------------------------------------------|
A:------------------------------------------------------------------|
E:------------------------------------------------------------------|

Outro
e:-----------------------------------------------------------------------|
B:11------11------11------11------11---11/-------------------------------|
G:14------14------14------14------14---14/-------------------------------|
D:-----------------------------------------------------continued---------|
A:---------------------------------------5p0-----4p0-----5p0-----4p0-----|
E:--000000--000000--000000--000000--000-----5h6p0---5h6p0---5h6p0---5h6p0|

e:-------------------------|
B:--------------555-101010-|
G:--------------888-131313-|
D:-------444444------------|
A:5p0----333333------------|repeat from beginning
E:---5h6-------------------|x4
Tap to rate this tab
# A B C D E F G H I J K L M N O P Q R S T U V W X Y Z