Song name
# A B C D E F G H I J K L M N O P Q R S T U V W X Y Z

The Fall Of Troy - Seattlantis tab

I put this up by request from someone. For those of you who don't have Guitar Pro. I'd 
using the note lengths (key at the bottom) because it can get a little confusing reading 
guitar pro ASCII. Sorry for any huge spaces.


      It's 10000000x easier if you don't hold your pick
      T                                                           T  T      T
      S                                                 S   S  S  S  S  E   S  S
E||------------------------------------------------------------------------------|
B||-----------------------------------------------------------------17p-8--------|
G||--16p------------------------------------------------9h-12p-0-16--------16p-9-|
D||------------------------------------------------------------------------------|
A||------------------------------------------------------------------------------|
E||------------------------------------------------------------------------------|

                                       T  T                    T  T
   S                          S  S  S  S  S  S  S  S  S  S  S  S  S  S  S
--------------------------------------------------------------------------|
--10p-------------------------0----------15p-7h-8-10p-0----------15p-7h-8-|
--------------------------------11p-0-14----------------11p-0-14----------|
--------------------------------------------------------------------------|
--------------------------------------------------------------------------|
--------------------------------------------------------------------------|


             T  T                  T  T
  S  S S  S  S  S  S  S S  S S  S  S  S  S  S
----------------------------------------------|
--8p-0---------13p-5h-8-8p-0---------13p-5h-8-|
-------9p-0-12---------------9p-0-12----------|
----------------------------------------------|
----------------------------------------------|
----------------------------------------------|


             T  T    T
  S  S S  S  S  S S  S  H
----------------------------------|
--7p-0---------12-----------------|
-------7p-0-11----7-12-11~--------|
----------------------------------|
----------------------------------|
----------------------------------|


   T            T  T         T            T  T
   S  S   S  S  S  S  S   S  S  S   S  S  S  S  S   S
------------------------------------------------------|
------------------17p-8h-10-----------------17p-8h-10-|
--16p-9h-12p-0-16-----------16p-9h-12p-0-16-----------|
------------------------------------------------------|
------------------------------------------------------|
------------------------------------------------------|


               T  T                    T  T
   S  S  S  S  S  S  S  S  S  S  S  S  S  S  S  S
--------------------------------------------------|
--10p-0----------15p-7h-8-10p-0----------15p-7h-8-|
--------11p-0-14----------------11p-0-14----------|
--------------------------------------------------|
--------------------------------------------------|
--------------------------------------------------|


             T  T                  T  T
  S  S S  S  S  S  S  S S  S S  S  S  S  S  S
----------------------------------------------|
--8p-0---------13p-5h-8-8p-0---------13p-5h-8-|
-------9p-0-12---------------9p-0-12----------|
----------------------------------------------|
----------------------------------------------|
----------------------------------------------|


             T  T    T            T  T    T
  S  S S  S  S  S S  S S  S S  S  S  S S  S
--------------------------------------------|
--7p-0---------12------7p-0---------12------|
-------7p-0-11----7-12------7p-0-11----7-12-|
--------------------------------------------|
--------------------------------------------|
--------------------------------------------|


   T            T  T         T            T  T
   S  S   S  S  S  S  S   S  S  S   S  S  S  S  S   S
------------------------------------------------------|
------------------17p-8h-10-----------------17p-8h-10-|
--16p-9h-12p-0-16-----------16p-9h-12p-0-16-----------|
------------------------------------------------------|
------------------------------------------------------|
------------------------------------------------------|


               T  T                    T  T
   S  S  S  S  S  S  S  S  S  S  S  S  S  S  S  S
--------------------------------------------------|
--10p-0----------15p-7h-8-10p-0----------15p-7h-8-|
--------11p-0-14----------------11p-0-14----------|
--------------------------------------------------|
--------------------------------------------------|
--------------------------------------------------|


             T  T                  T  T
  S  S S  S  S  S  S  S S  S S  S  S  S  S  S
----------------------------------------------|
--8p-0---------13p-5h-8-8p-0---------13p-5h-8-|
-------9p-0-12---------------9p-0-12----------|
----------------------------------------------|
----------------------------------------------|
----------------------------------------------|


             T  T    T
  S  S S  S  S  S S  S  H
----------------------------------|
--7p-0---------12-----------------|
-------7p-0-11----7-12-11~--------|
----------------------------------|
----------------------------------|
----------------------------------|


        T     T        T        T
  S  S  S  S  S  S  S  S  S  S  S  S   E  E
---------------------------------------------|
-------------------------------------3g5--0--|
---------------------------------------------|
--0h-4h-7p-0h-7p-0h-4h-7p-0h-4h-7p-0---------|
---------------------------------------------|
---------------------------------------------|


        T     T        T        T
  S  S  S  S  S  S  S  S  S  S  S  S   E  E
---------------------------------------------|
---------------------------------------------|
---------------------------------------------|
--0h-4h-7p-0h-7p-0h-4h-7p-0h-4h-7p-0-4g4--0--|
---------------------------------------------|
---------------------------------------------|


        T     T        T        T
  S  S  S  S  S  S  S  S  S  S  S  S   E  E
---------------------------------------------|
-------------------------------------3g5--0--|
---------------------------------------------|
--0h-4h-7p-0h-7p-0h-4h-7p-0h-4h-7p-0---------|
---------------------------------------------|
---------------------------------------------|


        T     T     T
  S  S  S  S  S  S  S  S Q    Q
-----------------------------------|
-----------------------------------|
-----------------------------------|
--0h-4h-7p-0h-7p-0h-7p-0-2----0----|
-----------------------------------|
-----------------------------------|


   T     T     T     T     T     T     T
   S  S  S  S  S  S  S  S  S  S  S  S  S  S  S  S
--------------------------------------------------|
--12p-8-------12p-8-------12p-8-------12p-8-------|
--------12p-7-------12p-7-------12p-7-------12p-7-|
--------------------------------------------------|
--------------------------------------------------|
--------------------------------------------------|


   Can't get the tempo change right >_<
                                          T            T             T
   S                                   S  S  S  T. T.  T. T.  T. T.  T. T.  T. T
---------------------------------------------------------------------------------|
--10p----------------------------------8-------10p-8---------10p-8---------10p-8-|
-----------------------------------------12p-7--------12p-7---------12p-7--------|
---------------------------------------------------------------------------------|
---------------------------------------------------------------------------------|
---------------------------------------------------------------------------------|


        T     T        T        T     T
  S  S  S  S  S  S  S  S  S  S  S  S  S  S  S S
-------------------------------------------------|
----------------------------------------------8h-|
--------------------------------------7S-9p-0----|
--0h-4h-7p-0h-7p-0h-4h-7p-0h-4h-7p-0h------------|
-------------------------------------------------|
-------------------------------------------------|


             T       T
  S  S  S S  S  S S  H         S
---------------------------------|
--0h-8p-0-7-10p-0-8-12p--------0-|
---------------------------------|
---------------------------------|
---------------------------------|
---------------------------------|


   T        T        T         T        T        T
   |--3--|                     |--3--|
   S  S  S  S  S  S  S  S   S  S  S  S  S  S  S  S  S   S
----------------------------------------------------------|
--12p-8p-0----------17p-8h-10-12p-8p-0----------17p-8h-10-|
-----------12p-0-----------------------12p-0--------------|
-----------------10--------------------------10-----------|
----------------------------------------------------------|
----------------------------------------------------------|


   T        T       T        T        T       T
   |--3--|                   |--3--|
   S  S  S  S  S S  S  S  S  S  S  S  S  S S  S  S  S
------------------------------------------------------|
--10p-0h-7---------15p-7h-8-10p-0h-7---------15p-7h-8-|
-----------11p-0---------------------11p-0------------|
-----------------9-------------------------9----------|
------------------------------------------------------|
------------------------------------------------------|


  T       T       T       T       T       T
  |--3--|                 |--3--|
  S  S  S S  S S  S  S  S S  S  S S  S S  S  S  S
--------------------------------------------------|
--8p-0h-5--------13p-5h-7-8p-0h-5--------13p-5h-8-|
----------9p-0--------------------9p-0------------|
---------------7-----------------------7----------|
--------------------------------------------------|
--------------------------------------------------|


  T       T       T       T       T       T
  |--3--|                 |--3--|
  S  S  S S  S S  S  S  S S  S  S S  S S  S  S  S
--------------------------------------------------|
--7p-0h-3--------12p-5h-8-7p-0h-3--------12p-5h-8-|
----------7p-0-4------------------7p-0-4----------|
--------------------------------------------------|
--------------------------------------------------|
--------------------------------------------------|


   T        T        T        T        T        T        T        T
   |--3--|  |--3--|  |--3--|  |--3--|  |--3--|  |--3--|  |--3--|  |--3--|
   S  S  S  S  S  S  S  S  S  S  S  S  S  S  S  S  S  S  S  S  S  S  S  S
--12p-0h-7-12p-0h-7-12p-0h-7-12p-0h-7-14p-0h-8-14p-0h-8-14p-0h-8-14p-0h-8-|
--------------------------------------------------------------------------|
--------------------------------------------------------------------------|
--------------------------------------------------------------------------|
--------------------------------------------------------------------------|
--------------------------------------------------------------------------|


   T         T         T         T
   |---3--|  |---3--|  |---3--|  |---3--|  |---3--|  |---3--|  |---3--|  |---3--
   S  S   S  S  S   S  S  S   S  S  S   S  S  S   S  S  S   S  S  S   S  S  S
--15p-0h-10-15p-0h-10-15p-0h-10-15p-0h-10-17p-0h-12-17p-0h-12-17p-0h-12-17p-0h-1-|
---------------------------------------------------------------------------------|
---------------------------------------------------------------------------------|
---------------------------------------------------------------------------------|
---------------------------------------------------------------------------------|
---------------------------------------------------------------------------------|


   |---3--|  |---3--|  |---3--|  |---3--|  |---3--|  |---3--|  |---3--|  |---3--
   S  S   S  S  S   S  S  S   S  S  S   S  S  S   S  S  S   S  S  S   S  S  S
--19p-0h-12-19p-0h-12-19p-0h-12-19p-0h-12-22p-0h-12-22p-0h-12-22p-0h-12-22p-0h-1-|
---------------------------------------------------------------------------------|
---------------------------------------------------------------------------------|
---------------------------------------------------------------------------------|
---------------------------------------------------------------------------------|
---------------------------------------------------------------------------------|


   W
--24b----------------||
---------------------||
---------------------||
---------------------||
---------------------||
---------------------||


Duration Legend
---------------
W - whole
H - half
Q - quarter
E - 8th
S - 16th
T - 32nd
X - 64th
. - note dotted
|-n-|  - n-tuplets


Tablature Legend
----------------
h - hammer on
p - pull off
b - bend
/ -  slide into from below or out of upwards
\ -  slide into from above or out of downwards
~ - vibrato
T - tapping
Tap to rate this tab
 
# A B C D E F G H I J K L M N O P Q R S T U V W X Y Z