Song name
# A B C D E F G H I J K L M N O P Q R S T U V W X Y Z

The Famous Class - Emily tab

Tabbed by: Dan (:
Email: Dan_f_s@msn.com

Tuning: Drop D/E standard, just change the bottom notes to the top 2 if you play in Drop D.


http://www.youtube.com/user/thefamousclassuk#p/u/54/Q0iW0Ka7Y6E
http://thefamousclass.com/




Verse.

e|--------------------------------------------------------------------------|
B|--------------------------------------------------------------------------|
G|------6-------------------------------------------------------------------|
D|------6-------------------------------------------------------------------|
A|------4-------------------------------------------------------------------|
E|--------------------------------------------------------------------------|

emily.. you cant say..

e|--------------------------------------------------------------------------|
B|--------------------------------------------------------------------------|
G|------x-x-6---------------------------------------------------------------|
D|------x-x-6-------x-x-6------x-x-8-------x-x-4----------------------------|
A|------x-x-4-------x-x-6------x-x-8-------x-x-4----------------------------|
E|------------------x-x-4------x-x-6-------x-x-2----------------------------|
you give it up ETC..




Chorus.
 same chords as verse but strummed 16x
e|--------------------------------------------------------------------------|
B|--------------------------------------------------------------------------|
G|------6-6-6---------------------------------------------------------------|
D|------6-6-6-------6-6-6------8-8-8-------4-4-4----------------------------|
A|------4-4-4-------6-6-6------8-8-8-------4-4-4----------------------------|
E|------------------4-4-4------6-6-6-------2-2-2----------------------------|



e|--------------------------------------------------------------------------|
B|--------------------------------------------------------------------------|
G|----6---------------------------------------------------------------------|
D|----x--through second verse-----------------------------------------------|
A|----4---------------------------------------------------------------------|
E|--------------------------------------------------------------------------|



Chorus.
 same chords as verse but strummed 16x
e|--------------------------------------------------------------------------|
B|--------------------------------------------------------------------------|
G|------6-6-6---------------------------------------------------------------|
D|------6-6-6-------6-6-6------8-8-8-------4-4-4----------------------------|
A|------4-4-4-------6-6-6------8-8-8-------4-4-4----------------------------|
E|------------------4-4-4------6-6-6-------2-2-2----------------------------|



post chorus same as chorus, strummed shorter

pre chorus same as chorus just stummed shorter (8x)


Chorus.
 same chords as verse but strummed 16x
e|--------------------------------------------------------------------------|
B|--------------------------------------------------------------------------|
G|------6-6-6---------------------------------------------------------------|
D|------6-6-6-------6-6-6------8-8-8-------4-4-4----------------------------|
A|------4-4-4-------6-6-6------8-8-8-------4-4-4----------------------------|
E|------------------4-4-4------6-6-6-------2-2-2----------------------------|

Bridge

e|--------------------------------------------------------------------------|
B|--------------------------------------------------------------------------|
G|------6-------------------------------------------------------------------|
D|------6-----------6-------8--------4--------------------------------------|
A|------4-----------6-------8--------4--------------------------------------|
E|------------------4-------6--------2--------------------------------------|

Outro
e|--------------------------------------------------------------------------|
B|--------------------------------------------------------------------------|
G|------6-6-6---------------------------------------------------------------|
D|------6-6-6-------6-6-6------8-8-8-------4-4-4----------------------------|
A|------4-4-4-------6-6-6------8-8-8-------4-4-4----------------------------|
E|------------------4-4-4------6-6-6-------2-2-2----------------------------|
finish on
e|----------------------------------------------------------------------------|
B|----------------------------------------------------------------------------|
G|--6\\---6-------------------------------------------------------------------|
D|--x\\---x-------------------------------------------------------------------|
A|--4\\---4-------------------------------------------------------------------|
E|----------------------------------------------------------------------------|

************************************

| /   slide up
| \   slide down
| h   hammer-on
| p   pull-off
| ~   vibrato
| +   harmonic
| x   Mute note
| b   Bend
| pb  Pre-bend
| br  Bend release
| pbr Pre-bend release
| brb Bend release bend

************************************
Tap to rate this tab
 
# A B C D E F G H I J K L M N O P Q R S T U V W X Y Z