Song name
# A B C D E F G H I J K L M N O P Q R S T U V W X Y Z

The Force Mds - Tender Love tab

band links http://en.wikipedia.org/wiki/The_Force_M.D.s


SONG:   tender love
ARTIST: the force mds(INTERPRETTED BY PRETTY ASIAN YOUTUBE GIRL)
http://www.youtube.com/watch?v=tqFOyM6b4Uk
TABBED BY: some asshole.

capo 1st

e---------------------------------1----\------------------------------------------|
b----4----6------1----------4------4--4\-----1-2p1-2p1-2p1--4p2p1-----------------|
g--1-1-------3-1---1----1h3---3------3-\---3----------------------1---------------|
d-1-------------------1---------1------\---4--------------------------------------|
a4----S-4--------3---------------------\------------------------------------------|
e--------------------------------------\------------------------------------------|
     tenderluv,  so tender             baby i surrender
e-------------------------------------1----1-------------------------|
b-------1----1---1----1---1----1-------2-------4---4---2---2--4--4---|
g-1h2-1--1---1-----2--2-----1--1--------1--------1------1------1-----|
d------------1------1-1------1-1------3---3-------1-------------1----|
a-------4--4-4---3----3---3----3---------------3-------4--4----------|
e-------------------------------------------------------------3------|

breakdown
e-------------------s-6--6-s-4-----------------------|
b-6---6-----2----2--s-6--6-s-4--4---4-4---4----------|
g--5--5-x2----1--1--s-6----------5--5--1--1----------|
d---6-6--------3-3----------------5-5---5-4----------|
a-4---------1-------------------------3--------------|
e-------------------------------4--------------------|


NAMUNAE!!!!!!!!!!!!!!!
Tap to rate this tab
# A B C D E F G H I J K L M N O P Q R S T U V W X Y Z