The Four Horsemen - Wcw Entrance Theme tab

-------------------------------------------------
WCW - The Four Horsemen - Entrance Theme
-------------------------------------------------
Tabbed by: C@$H
E-Mail: robertchinwuba11@yahoo.com
Tuning: Standard (EADGBE)

(Horse Thing)

E|-----------------|
B|-----------------|
G|-------9~--------|
D|-------9~--------|
A|-----------------|
E|-----------------|

First Part:

E|-------------------------------------14-14-14-15-14------------|
B|------------------15---12~------/12-----------------15---------|
G|-------------------------------------------------------14------|
D|-------/14---17------------------------------------------------|
A|---------------------------------------------------------------|
E|---------------------------------------------------------------|

Second Bit:

E|---------------------------------------------------------------|
B|-------------------------------------17-19---20-19-17----17----|
G|-------/19-16-----------------16-19-------------------19-------|
D|--------------17-16---17-19------------------------------------|
A|---------------------------------------------------------------|
E|---------------------------------------------------------------|

E|---------------------------------------------------------------|
B|---------------------------------------------------------------|
G|--16-----------------------------------------------------------|
D|-----19---16-----16-14~----------------------------------------|
A|-------------17------------------------------------------------|
E|---------------------------------------------------------------|

(First Part Again)

Five 1/2-Tones Lower:

E|---------------------------------------------------------------|
B|---------------------------------------------------------------|
G|----11-11-11-12-11---------------------------------------------|
D|--9----------------12------------------------------------------|
A|----------------------12---------------------------------------|
E|---------------------------------------------------------------|

(Second Bit Again)
Tap to rate this tab
 
# A B C D E F G H I J K L M N O P Q R S T U V W X Y Z