Song name
# A B C D E F G H I J K L M N O P Q R S T U V W X Y Z

The Frantic - Fast Girl tab

I wanted to learn this song so badly but nobody tabbed it, so I tabbed it. It's my 
first tab so... yeah.
This is the rhythm guitar
Intro:
( The * underneath the chords shows that it's palm muted because it switches between 
palm mute and open )
Listen to the song here: http://www.youtube.com/watch?v=Ch8gcY0ajOw

e|-----------------------------------------------------------------------------|
B|-----------------------------------------------------------------------------|
G|--------------------------------------------------9----9~~9-7-6-4-2~-4-------|
D|--9--9-9-9-9-9-9--7-6-4--------------------------9---------------------------|
A|--7--7-7-7-7-7-7--5-4-2-7-7-7-7-7-7-9-9-9-9-9-9-7----------------------------|
E|-------------------------5-5-5-5-5-5-7-7-7-7-7-7-0~~~~~~~~~------------------|
              *  *  *  *  *                       *   *  *  *  *       *  *  *  *  *
Verse: 2x

e|-----------------------------------------------------------------------------|
B|-----------------------------------------------------------------------------|
G|-----------------------------------------------------------------------------|
D|--9-9-9-9-9-9-9--------------------------------------------------------------|
A|--7-7-7-7-7-7-7-9-9-9-9-9-9-9-7-7-7-7-7-7-7-9-9-9-9-9-9-9--------------------|
E|-----------------7-7-7-7-7-7-7-5-5-5-5-5-5-5-7-7-7-7-7-7-7-------------------|
           *  *  *  *  *   *       *  *  *  *   *   *      *  *  *  *  *  *      *  *  *  *  *  *
Chorus: 2x

e|-------------------------------------------------------------------------------------|
B|-------------------------------------------------------------------------------------|
G|-------------------------------------------------------------------------------------|
D|-9-9-9-9-9-9-9-9-9-9-9-9-9-9-9-9-----------------------------------------------------|
A|-7-7-7-7-7-7-7-7-7-7-7-7-7-7-7-7--7-7-7-7-7-7-7-9-9-9-9-9-9-9------------------------|
E|------------------------------------5-5-5-5-5-5-5-7-7-7-7-7-7-7----------------------|

Bridge: 8x Let it ring for every beat
Outro: 2x
e|-0~------------------------------------------------------------------------|
B|-0~------------------------------------------------------------------------|
G|-0~------------------------------------------------------------------------|
D|-2~------------------------------------------------------------------------|
A|-2~------------------------------------------------------------------------|
E|-0~------------------------------------------------------------------------|

Intro, Verse, Chorus, Verse, Chorus, Bridge, Chorus, Outro
Tap to rate this tab
 
# A B C D E F G H I J K L M N O P Q R S T U V W X Y Z