Song name
# A B C D E F G H I J K L M N O P Q R S T U V W X Y Z

The Fratellis - Lupe Brown tab

Brilliant song from their new album, just the intro, chords to follow. This is my first 
let me know what you think!

Standard tuning

e[-------------------------------------------------------|
b[-------------------------------------------------------|
g[-------------------------------------------------------|
d[-------------------------------------------------  x 3-|
a[-------------------------------------------------------|
E[----0-0-0-7-0-0-5-0-4-0-2---0-0-0-4-0-0-9-0-11-12------|


e----------------------------------------7-7-7-7-7-7-7-7-7-7-7-7-7-7-7-7-]
b----------------------------------------7-7-7-7-7-7-7-7-7-7-7-7-7-7-7-7-]
g----------------------------------------8-8-8-8-8-8-8-8-8-8-8-8-8-8-8-8-]
d----------------------------------------9-9-9-9-9-9-9-9-9-9-9-9-9-9-9-9-]
a----------------------------------------9-9-9-9-9-9-9-9-9-9-9-9-9-9-9-9-]
E----0-0-0-7-0-0-5-0-4-0-2---0-2-4-5-7-9-7-7-7-7-7-7-7-7-7-7-7-7-7-7-7-7-]
Tap to rate this tab
# A B C D E F G H I J K L M N O P Q R S T U V W X Y Z