Song name
# A B C D E F G H I J K L M N O P Q R S T U V W X Y Z

The Game - Where Im From tab

 feat nate dogg


i doubt its totally correct but its something to go from

main part, repeated alot
palm muted 
 s
e|-8/10----------------------|
b|------13-11----------11-13-|
g|------------12-10-12-------|
d|---------------------------|
a|---------------------------|
E|---------------------------|

does this every so often
  s
e|-8/10----------10----------|
b|------13-11----------------|
g|------------12----12-10-12-|
d|---------------------------|
a|---------------------------|
E|---------------------------|
Tap to rate this tab
 
# A B C D E F G H I J K L M N O P Q R S T U V W X Y Z